Ads

Recent comments

Comment Posted on Submittedsort icon

Hello. I have a few questions. 1) How can I contact the administrators? (only via the forum?) 2) I lost access to my old Sad_Pleasure account and access to the mail to which the account was linked. Is there any way to get access to it by changing the mail. Or delete it and re-register it. If this is still not possible, then you can put a link for HIGAN, as i did in the new tab THIN PURPLE to the guitar pro tab at the top of the tablature description, I made a dropbox link, wrote it down in the comments. https://www.dropbox.com/sh/zxs0hqefmq963ma/AACFGDHDu5B9QNm6yEV1Rq3aa?dl=0 .
3) I think if I can't get access to the old account, then it's better to place new tablature on this account, so that it would be easier to edit in case of errors. Thanks!

Thin Purple 22 weeks 3 days ago

Thanks again scarecrowlol. Here is the link

https://www.dropbox.com/sh/yzngik0mcnmay2i/AAB2AxRFQboUNqCKkGrbEU0Ta?dl=0

Prelude 22 weeks 4 days ago

No worries! I've changed the necessary bars. As for the GP file, do you have an edit button at the top of your tab page? if not then you'll have to provide me with a download link and i can update

Prelude 22 weeks 4 days ago

Thanks so much scarecrowlol. I also picked up a couple errors and would like to resubmit but not sure what the process is. Here are the main corrections:

Bars 3, 4, 7 and 8 should be (making use of open note rather than fretted):
--------------------------2-------------------------|
--------------------0h-4-----4h-0-------------------|
--------------0h-2-----------------2h-0-------------|
----------------------------------------------------|
--------0h-4-----------------------------4h-0-------|
--4h-6-----------------------------------------6----|

Bar 18 should be (removed extra note in melody):
--4-----------------------7-------------------------|
-----------4-----------4-----------4-----------4----|
--------5-----------5-----------5-----------5-------|
-----0-----------0-----------0-----------0----------|
--0-----------0-----------0-----------0-------------|
----------------------------------------------------|

I can resubmit the GP5 just not sure how.

Prelude 23 weeks 1 day ago

I've added a small note at the top of the tab that its in capo 5 :)

Prelude 23 weeks 1 day ago

Hi this is the first tab I have uploaded here. Not sure what happened to the tuning information but just a quick note that it is CGDEGD with capo on 5th.

You can watch the arrangement being played here: https://www.youtube.com/watch?v=Wn4FyIysiLA

Prelude 23 weeks 2 days ago

Amazing!

Arthas, My Son - Invincible 23 weeks 2 days ago

What a beautiful piece, great job my friend! So many thanks!

Not so far away 23 weeks 2 days ago

Thanks for the answer. I have a few questions. 1) How can I contact the administrators? (only via the forum?) 2) I lost access to my old Sad_Pleasure account and access to the mail to which the account was linked. Is there any way to get access to it by changing the mail. Or delete it and re-register it. If this is still not possible, then you can put a link to the guitar pro tab at the top of the tablature description, I made a dropbox link, wrote it down in the comments. https://www.dropbox.com/sh/zxs0hqefmq963ma/AACFGDHDu5B9QNm6yEV1Rq3aa?dl=0 .
3) I think if I can't get access to the old account, then it's better to place new tablature on this account, so that it would be easier to edit in case of errors.

Higan 23 weeks 3 days ago

Link on Guitar pro tab, midi, pdf file or all in zip file https://www.dropbox.com/sh/zxs0hqefmq963ma/AACFGDHDu5B9QNm6yEV1Rq3aa?dl=0

Higan 23 weeks 3 days ago

Nope, it's a website problem we can't host files anymore, your best bet is to upload it on a website (google drive, mediafire, dropbox...) and put the download link at the top of the tab description

Higan 23 weeks 3 days ago

Gtp file in zip file dont download. Am I doing something wrong?

Higan 23 weeks 3 days ago

It is very helpful for newcomers. It really makes me happy. Thanks slope 2

Boukoku Kakusei Catharsis 24 weeks 6 days ago

Enjoyable!

I've noticed a leitmotif of the Fields of Hopes and Dreams is in the 6th measure.

Thrash Machine 28 weeks 1 day ago

Ohhh I'll have to give it a listen happy to see you are still going strong with Pixel Mixers Hashel hope you are doing well sir!

Tranquility: A VGM Tribute album to the benefit of SaveTheChildren 29 weeks 1 day ago

Looks interesting! I didn't expect an Ace Combat cover. Can you also add en external link to the Guitar Pro file? The "download" button doesn't work.

Megalith: Agnus Dei (Rex Tremendae) 29 weeks 6 days ago

Hey,

Would you have the Zelda's Theme (Milk Bar version) tab?

Cheers!

Lorule Castle (Milk Bar) 29 weeks 6 days ago
"Slider" - Super Mario 64
Composers : Koji Kondo
Arrangement : judgexii
Tuning : Standard EADGBe
BPM : 175 (4/4 time)

   Intro
   h        h                    e  e  e  e  e  e  e  e
e-----------------------------|-----------------------------||
B-/5-------/5-----------------|-/5--5--2--2-----------------||
G-/2-------/2-----------------|-/2--2--2--2--4--4--3--3-----||
D-----------------------------|-----------------------------||
A--0--------0-----------------|--0-----0-----0-----0--------||
E-----------------------------|-----------------------------||
   
   Part 1
   q    q    q    q              e  e  e  e  q    e  e         q    q    q    q              e  e  e  e  q    e  e                                      
e-----------------------------|--------------2----0---------|------------0----------------|-----------------------------|
B-----------------------------|--3--3--2--3--1----1--3------|--0---------0----3-----------|--0--0-----0--3----2--0------|
G--2--------/4----2-----------|--2--------------------------|--0--------------0-----------|--0-----3-----1----1---------|
D--0----0----0----0-----------|--0-----0-----0----0---------|-----------------------------|-----------------------------|
A-----------------------------|-----------------------------|-----------------------------|--------------2----2---------|
E-----------------------------|-----------------------------|--3----3----3----3-----------|--3-----3--------------------|

   q    e  e  q    q             q    e e  e  e  q             q    e e  e  e  q             q    q    q    q
e------------------5----------|---------------5-------------|---------------5-------------|--0--------------------------|
B------------------3----------|---------------4-------------|---------------5-------------|--2--------------------------|
G--2-------2------------------|-------2p1--2----------------|-------2\1--2----------------|--2----2----1----0-----------|
D--0----0-----0----0----------|--1----1----1-----1----------|--2----2----2------2---------|--2--------------------------|
A-----------------------------|-----------------------------|-----------------------------|-----------------------------|
E-----------------------------|-----------------------------|-----------------------------|-----------------------------|

   q    q    q    q              q    e e  q    e e            q    q    q    q              q    e e  q    e e                                    
e-----------------------------|-----------------------------|------------0----------------|-----------------------------|
B--3--------------------------|--1---------1----------------|--0---------0----3-----------|--0----0h2--3----2p0---------|
G------------4----2-----------|--2--------------------------|--0--------------0-----------|--1----1----1----1-----------|
D--4---------0----0-----------|--0----0h2--4----2p0---------|-----------------------------|-----------------------------|
A--5----5---------------------|-----------------------------|-----------------------------|--2----2----2----2-----------|
E-----------------------------|-----------------------------|--3----3----3----3-----------|-----------------------------|

							       Part 1 Ending 1
   e  e  q    q    q             q    q    q    q              q    q    q    q              q    q    q    q
e-----------------------------|--5--------------0-----------|-----------------------------|-----------------------------||
B-----------------------------|--2--------------2-----------|--3----3----3----3-----------|--3----3----3----3-----------||
G-----2-------2---------------|------------2----------------|--2----2----2----2-----------|--2----2----2----2-----------||
D-----2-------2---------------|-----------------------------|--0----0---------------------|-----------------------------||
A--0-----0----0----0----------|--0----2----3----4-----------|------------3----3-----------|--2----2----1----1-----------||
E-----------------------------|-----------------------------|-----------------------------|-----------------------------|| Back to Part 1


   Part 1 Ending 2
   q    q    q    q              e  e  e  e  e  e  e  e        
e-----------------------------|--------------0--2--3--5-----||
B--3--------------------------|-----3--2--3--1--1-----------||
G--2--------------------------|-----------------------------||
D--0----0----0----0-----------|--0-----0-----0-----0--------||
A-----------------------------|-----------------------------||
E-----------------------------|-----------------------------|| To Part 2

   Part 2
   q    q    q    q              q    q    q    q              q    q    q    q              q    q    e  e  e  e
e-----------------------------|-----------------------------|-----------------------------|-----------------------------|
B--0--------------------------|------------0----------------|--3---------3----------------|--3------------------2-------|
G--0---------3----------------|--2--------------------------|--0---------2----------------|---------------2--4----------|
D------------0----------------|--0----0----0----4-----------|-----------------------------|--4---------------0----------|
A-----------------------------|-----------------5-----------|--2----2----1----1-----------|--5----5----5----------------|
E--3----3----3----3-----------|-----------------------------|-----------------------------|-----------------------------|

   q    q    e  e  e  e          q    q    q    q              q    q    q    q              q    q    q    q 
e---------------------0-------|--2--------------2-----------|--0--------------------------|-----------------------------||
B--3------------2--3----------|--3--------------3-----------|--0---------3----2-----------|--3--------------------------||
G--0------------1--1----------|------------2----------------|------------2----0-----------|--2--------------------------||
D-----------------------------|------------0----0-----------|-----------------------------|--0----0----0----0-----------||
A------------2-----2----------|--0----0---------------------|------------0----0-----------|-----------------------------||
E--3----3---------------------|-----------------------------|--3----3---------------------|-----------------------------||


   Part 3
   q    q    e  e  q             e  e  q    e  e  q            q    q    e  e  q             e  e  q    e  e  q
e-----------------------------|-----------------------------|-----------------------------|-----------------------------|
B-------3----3--3-------------|-----3--3----3--3------------|-------3----3--3-------------|-----3--3----3--3------------|
G-------2----2--2-------------|-----2--2----2--2------------|-------4----4--4-------------|-----4--4----4--4------------|
D--0----0----0-----0----------|--0-----0----0-----0---------|-------3----3--3-------------|-----3--3----3--3------------|
A-----------------------------|-----------------------------|--5----5----5-----5----------|--5-----5----5-----5---------|
E-----------------------------|-----------------------------|-----------------------------|-----------------------------|
 
   q    q    q    q              q    q    q    q              q    q    q    q              q    e  e  q    q
e-/5--------/5----------------|-/5----2---------------------|-----------------------------|-----------------------------|
B-/3--------/3----------------|-/3----3----5----4-----------|-/3--------/3----------------|-/3-------2-/3----5----------|
G-----------------------------|-----------------------------|-/4--------/4----------------|-/4-------3-/4----4----------|
D--0----0----0----0-----------|--0----0----0----0-----------|-----------------------------|-----------------------------|
A-----------------------------|-----------------------------|-----------------------------|-----------------------------|
E-----------------------------|-----------------------------|--3----3----3----3-----------|--3----3-----3----3----------|

   q    e  e  q    q             q    q    s s s s e  e        e  s s e  s s s s s s s s s s    s s s s s s s s s s s s s s s s
e-------------2----5----------|--4----5----4h5h2------------|--------------0-2\1/2h3/5p4p3p0-|-------h5-------5-----------------||
B--3----3--3--3----3----------|--3----3----------3p2--------|--0----2h3----------------------|--3p2h3---2\1/2---2\1p0-----------||
G--2----2--2--2----2----------|--2----2---------------2-----|--0------0------0-------0-------|------------------------3\2p1p0---||
D--0----0-----0----0----------|--0----0----0-------0--------|--------------------------------|-------------------------------h2-||
A-----------------------------|-----------------------------|--------------------------------|--0-------0-------0-------0-------||
E-----------------------------|-----------------------------|--------------------------------|----------------------------------|| Back to Part 1


Note Legend
-----------
w - whole
h - half
q - quarter
e - eighth
. - dotted

Tab Legend
-----------
() - continue holding note
h - hammer on
p - pull off
/ - slide up
\ - slide down
<> - natural harmonic
^ - brush up
Slider 30 weeks 1 day ago

It would be nice if there are some time notes.

Rude Buster 30 weeks 3 days ago

olenellus,

Ясно, я подозревал, что тут - ручная корректировка. Расписано очень подробно, за это моё уважение

Everlasting Summer 30 weeks 5 days ago

К сожалению, вручную в текстовом редакторе с поблочным копированием и вставкой. Так как при этом нет возможности прослушать набранный материал, высока вероятность опечаток, что повсеместно и наблюдается в моих табулатурах. Основным форматом я считал всё же не табулатуру, а нотный текст в приложении. Его набирал в LilyPond.

Кстати, если интересует сама пьеса, советую попробовать другой вариант на этом же сайте. Тот вариант проще играть, а соответственно, он будет увереннее звучать. К тому же он немного ближе к оригиналу по нотам.

Everlasting Summer 30 weeks 6 days ago

На какой программе писалась таба? Спрашиваю, потому что уж очень интересный формат ASCII файла.

Everlasting Summer 31 weeks 1 hour ago

Thanks! I understand now, lol. I don't have that program :C

Anyhow, thanks for the reply! and sorry for late reply!

Its nice to have some fun doing what you do :D

Thanks again!

Turtle woods 31 weeks 2 days ago

It's been a while since a posting it, BUT this is the one of most wonderful and adverb tabulatures I've ever met on the Gametabs.

Journey (Dream of Flight) 31 weeks 4 days ago

i missed this comment. i might upload this one actually, its really short and isn't very difficult

A Knight's Oath 31 weeks 4 days ago

Thanks for your appreciation and yes indeed ... "having fun" remains the goal of the tablature (despite the title of this song ^^ )

Rosalina Story & Sad Story 31 weeks 5 days ago

Thanks bro ! Your comments are not bad either ^^

Chocobo-Chocobo 31 weeks 5 days ago

Hi & Thanks you for your nice comment.
Also thanx to Nate Brooks to shows us how good this tune can sound on guitar, a very nice perf. Bravo \^.^/

Beach of Nothingness 31 weeks 5 days ago

Thank you!
I just listen to the notes one by one and transcribe them (because I don't have a sense of pitch), then choose the sounds giving priority to the fingering.

Hip Shop 32 weeks 1 day ago

I'm not a big fan of Naruto but my friends will love it. And thanks for the tips in the comments, the sound of this music will become even better

Sadness and Sorrow 32 weeks 1 day ago

I love Zelda, I want to learn how to play it. Cool! Thank you

Song of Storms 32 weeks 1 day ago

cool and looks pretty simple. need to try

Casino Night Zone 32 weeks 1 day ago

What a most wondrous playeth of thouth. Do you pick tracks by ear or make tabs first?

Hip Shop 32 weeks 1 day ago

You could also put it in standard tuning and move some of the d notes to the 5th string. IE:

e |----------------|----------------|----------------|----------------|
B |--0-3-2---3---3-|3-----0---------|--0-3-2---3---3-|L---------------|
G |0-0-4-----------|--2-------------|0-0-4-----------|----------------|
D |0-----2---4---4-|4-4---0---------|0-----2---4---4-|L---------------|
A |------0---------|5---------------|------0-------5-|----------------|
E |3---------------|------3---------|3---------------|L---------------|

    Part A

e |--------0-------|----------------|--------2-------|----------------|
B |----3-------2-3-|3-----3-2-----2-|0-----3-----3---|----1---2-------|
G |--2-------2-----|----4-------2---|----0---------2-|--2---------0---|  
D |4-------2-------|--4-------4-----|--0-------0-----|3-----3---2---2-| x2
A |5-----5-4-----4-|2-----2-0-----0-|----------------|--------0-----0-|    
E |----------------|----------------|3-----3-2-----2-|1-----1---------|    

e |2-0---0-2-------|----2---7-------|----------------|----------------|
B |----3-------0---|3-------7-------|3-----2-3---2-3-|3---------------|
G |----4-----------|----------------|----4-----------|----------------|
D |--4-------4-----|--4-------------|--0-------0-----|4---------------|
A |2-------1-------|0---------------|--------0-------|5---------------|
E |----------------|--------4-------|3---------------|----------------|

   Part B

e |----------------|----------------|--------0-------|--------2-------|
B |----2-----------|------3---------|----2-----3-2-3-|------3-----0-2-|
G |2-------2-------|----0-----------|2-------0-------|----2-----2-----|
D |----------4-2-0-|--0---------0---|--------------4-|--4-------------|
A |--4-------------|----------------|--4-----0-----0-|5-----5-5-----5-|
E |2-----2---------|3-----3---------|2-----2---------|----------------|
                            
e |----------------|----------------|----------------|--------2-------|
B |3-2-0-2-3-2-0-2-|3-2-0-2-3-----2-|3-2-0-2-3-2-0-2-|3-----3---3---3-|
G |0-------2-------|0-------2---2---|0-------2-------|0---0-------2---|
D |----------------|----------------|----------------|--0-------------|
A |----------------|----------------|----------------|--------0-------|
E |3-------2-------|0-------2-------|3-------2-------|0---------------|

e |----------------|
B |L---------------|
G |----------------|
D |4---------------|
A |5---------------|
E |----------------|

    Repeat back to Part A.
   
Pollyanna 32 weeks 5 days ago

Just wanted to say that I noticed there already was a shop bass tab, but that tab in the "chorus" section sounds a little off to me because of the lack of derivation in the root note. It goes from:

- 2 bars of F root, to 4 bars of G root, to 2 bars of C root.

Mine is a bit more dynamic:

- 2 bars F, 2 bars E, 2 bars G, 2 bars C

The added E root note makes the shift to the G sound more impactful and it's not stagnating (if you will) on the G for too long.

Shop 32 weeks 5 days ago

Lemoncobbler said
you need someone with really fucking strong thumbs to play this
but the midi sounds awesome, so I want to give it a try.
great job.

True. I tried various things but just couldn't give up the awesome bass line, haha. Thanks for the comments.

You could try to relax the bass by using hammer-ons/pull-offs where appropriate, although it can get a bit intense regardless.

Opening Theme 32 weeks 6 days ago

Thanks for the kind words!

Night Dance 32 weeks 6 days ago

Cool, thanks!

Chaos King 33 weeks 4 hours ago

Hey thanks, edited the info :)

Chaos King 33 weeks 8 hours ago

I think I made a mistake when I filled the title of the song. The actual title is "Chaos King".
Is there any way we can update the title? Or maybe delete this tab and I'll upload a new one with the correct title?.

Chaos King 33 weeks 1 day ago

NICE! Can do same with Zovaal ? Its antogoins in WoW Shadowlands, i want Zovaal, The Jailer Kill when 9.2 and new SotFO Raid start ;)

Arthas' Theme 33 weeks 1 day ago

Didn't expect this song to have a tab and it actually sounds pretty neat

Time Gear 33 weeks 3 days ago

lmao I can't play it

Credens Justitiam 33 weeks 3 days ago

Looks pretty complicated. But I want to learn how to play this tune. Heard people who can play sounds good

Main Theme 34 weeks 1 day ago

I don't play much guitar, but this song, I had to learn how to play it. thank you so much

Zelda's Lullaby 34 weeks 1 day ago

cool, thanks. Sounds really good, I'm confused at some points, but it's okay

Overworld (Main Theme) 34 weeks 1 day ago

I missed this before uploading but the final notes of the "verse" should only be a single G#, not two. so it should look like:

----------------------------------------------------|
----------------------------------------------------| x2
-----4-----4--2-----2-------------------------------|
--------------------------3-----3--4\---------------|

Check out my recording if you can't figure out the rhythm.

Lancer 34 weeks 3 days ago

I found it easier to play

--7--------------------0----|
--------------10------------|
--------9--------9----------|
-----7-----7--------7-------|
----------------------------|
--9-------------------------|

like this

--7-----------5--------0----|
--------5--------5----------|
----------------------------|
-----7-----7--------7-------|
--4-------------------------|
----------------------------|

and also I thought it was easier to play

----------------------------|
--------------8-----10------|
--10------------------------|
--10-10----10L10-10----10---|
--8-----8-------------------|
----------------------------|

like this

--------------3-----5-------|
--6-------------------------|
--5--5----5-----------------|
--3----3---------3------3---|
----------------------------|
----------------------------|
Chaos' Temple 34 weeks 6 days ago

Seus trabalhos são excelentes!!!

Chocobo-Chocobo 35 weeks 4 days ago

Hooooly shit this is incredible, thank you so much for taking the time to arrange this.

The Real Folk Blues 35 weeks 5 days ago