Ads

Title Screen (Comic Bakery) Guitar Tab

Submitted: Feb 02, 2010 by LTRobson

5
Average: 5 (1 vote)
Download | Listen
Game: Comic Bakery
Composer(s): Martin Galway
Style: 2 or more instruments, Transcription

AutoScroll: Slow | Medium | Fast
 Comic Bakery - Title Screen (Commodore 64)
 Tabbed by LTRobson 02/02/10

 Standard tuning
 
 Guitar 1
 ------------------------------------------------------------------------------------------
 ------------------------------------------------------------------------------------------
 ------------------------------------------------------------------------------------------
 ----3h5--------3h5--------6h8--------1h3--------3h5--------3h5--------6h8--------8h10-----
 ------------------------------------------------------------------------------------------
 -3------3-3-3------3-3-6------6-6-1------1-1-3------3-3-3------3-3-6------6-6-8-------8-8-

 Guitar 2
 ----3-3----3-3----3-3----3-3----6-6----6-6----7-7----7-7-
 ---------------------------------------------------------
 -0------0------0------0------3------3------5------5------
 ---------------------------------------------------------
 ---------------------------------------------------------
 ---------------------------------------------------------

 Melody
 -----------------------------------------------------
 --------------------10-10/11-13-11-10-10/11-10-------  (10 to 11 are quick slides)
 -12-12-10-12-----12----------------------------12-10-
 --------------12-------------------------------------
 -----------------------------------------------------
 -----------------------------------------------------

 --------------------------------------------------
 --------------------------------------------------
 -12-12-10-12-----10-12-10-10-12-10-9----8-9-10-11-
 --------------12---------------------10-----------
 --------------------------------------------------
 --------------------------------------------------

 -----------------------------------------------------
 --------------------10-10/11-13-11-10-10/11-10-------
 -12-12-10-12-----12----------------------------12-10-
 --------------12-------------------------------------
 -----------------------------------------------------
 -----------------------------------------------------

 -----------------------10-------------------------------------
 --------------------------13-11-------------------------------
 -12-12-10-12-----10-12----------12-10-------------------------
 --------------12----------------------12-------12-------------
 -----------------------------------------12h13----12h13p12/10-
 --------------------------------------------------------------
Login or Register to remove this ad.

2 comments on Title Screen

Finally found the name of

Finally found the name of this tune:
http://www.youtube.com/watch?v=O1xvjF7h0oA

Comic Bakery sounded similar.

Yeah man! It sounds great!

5

Yeah man! It sounds great! Five stars!