Ads

Comet Observatory (Super Mario Galaxy) Guitar Tab

Submitted: May 17, 2020 by FocusShallNotFail (Last updated: May 21, 2020)

5
Average: 5 (2 votes)
Download | No audio :(
Game: Super Mario Galaxy
Composer(s): Koji Kondo, Mahito Yokota
Style: Arrangement, Artificial harmonics, Fingerstyle
Series: Mario

This song is also called Rosalina's Observatory

Click here for a video example.

AutoScroll: Slow | Medium | Fast
Title: Comet Observatory 1 
Artist: 
Album: 
Author: Arrangement: Eduardo Barelli


Track 1: Super Mario Galaxy
      A.H.A.H.    A.H.A.H.      A.H.A.H.    A.H.A.H.      A.H.A.H.   A.H.A.H.       A.H.A.H.  
E|-------------------------|-------------5-----------|-------------------------|-------------5-----|
B|-5-----------7-----------|-8-----------7-----------|-5-----------7-----------|-8-----------8-----|
G|-6-----------7-----------|-9-----------------------|-6-----------7-----------|-9-----------6-----|
D|-----0---0-------0---0---|-----0---0-------0---0---|-----0---0-------0---0---|-----0---0---7-----|
A|-0-----------------------|-0-----------------------|-0-----------------------|-0-----------------|
D|-------------------------|-------------------------|-------------------------|-------------------|


E|-------2-------0-----------|-------------------|-------------------------|-------------------|
B|------------2------3-------|-2-------3---------|-3---2-------3---2-------|-------------------|
G|----2-------------------2--|-----4-------------|-------------------------|-4-------4---2-----|
D|-4-------------------------|-------------2-----|----------5-----------5--|-----3-------4-----|
A|---------------------------|-------------------|-0-----------------------|-------------------|
D|-0-------------4-----------|-5-----------------|-------------------------|-0-----------------|


E|-------2-------0-----------|-------5-------5---3----|-3---2-------2---0-------|------------|
B|------------2------3-------|----3-------3-----------|----------------------2--|-3----------|
G|----2-------------------3--|-4----------------------|----------2--------------|------------|
D|-4-------------------------|------------------------|-------------------------|------------|
A|---------------------------|---------------1--------|-0-----------0-----------|------------|
D|-0-------------4-----------|-5----------------------|-------------------------|-0----------|


E|-------14---9--12--10------|-9---7---10--------|-10--9-------10--9-------|-------------------|
B|----10------------------11-|-------------5-----|----------8-----------8--|-12------12--10----|
G|-11------------------------|-0-----------------|-------------------------|-----10------------|
D|-0-------------------------|-------------------|-7-----------7-----------|-0-----------------|
A|---------------9-----------|-------------------|-------------------------|-------------------|
D|---------------------------|-------------------|-------------------------|-------------------|


E|-------14---9--12--10------|----10-17------17--15---|-15--14------14--12---9--|-10---------|
B|----10------------------11-|-12---------15----------|-------------------------|------------|
G|-11------------------------|-0----------------------|----------14-------------|------------|
D|-0-------------------------|------------------------|-------------------------|-0----------|
A|---------------9-----------|---------------13-------|-12----------------------|------------|
D|---------------------------|------------------------|-------------------------|------------|


E|---------0-----------9---|-------------|---------0-----------9---|------12--9-----|
B|-10----------10----------|-10----------|-10----------10----------|-10-------------|
G|-----7-----------7-------|-------7-----|-----7-----------7-------|----------------|
D|-------------------------|-------------|-------------------------|-0--------------|
A|-10----------------------|-9-----------|-7-----------------------|----------------|
D|-------------------------|-------------|-------------------------|----------------|


E|-5-----------5-------9---|-5-----------|-------------|-------0-----|
B|---------5---------------|-------3-----|-0-----2-----|-3-----2-----|
G|-----7-----------7-------|-------2-----|-0-----2-----|-4-----------|
D|-5-----------------------|-4-----------|-2-----------|-------------|
A|-------------------------|-------------|-------------|-0-----------|
D|-------------------------|-------------|-2-----------|-------------|



Login or Register to remove this ad.

1 comment on Comet Observatory

the tabs

the tabs say

E|-------------------------|
B|-5-----------7-----------|
G|-6-----------7-----------|
D|-----0---0-------0---0---|
A|-0-----------------------|
D|-------------------------|

but in the video you play

E|-------------------------|
B|-5-----------7-----------|
G|-6-----------7-----------|
D|----<7>-<7>-----<7>-<7>--|
A|-0-----------------------|
D|-------------------------|