Silence (Coffin of Ashes) Guitar Tab

Submitted: Sep 17, 2018 by scarecrowlol

5
Average: 5 (2 votes)
Download | Listen
Game: Coffin of Ashes
Composer(s): Presence Of Music
Style: Arrangement, Fingerstyle

AutoScroll: Slow | Medium | Fast
Title: Silence
SubTitle: Coffin Of Ashes
Artist: Presence Of Music
Tabber: Mitch Jackson
Tempo = 60
T/S = 4/4

Left hand fingering included in GP file as a guide

*NOTE THE TUNING*



    ♪♫•*¨*•.¸¸ CAPO 2 ¸¸.•*¨*•♫♪



      E  E  Q     H                W                            E  E  Q     H                Q     Q     Q     Q
E ||----------------------------|----------------------------|----------------------------|----------------------------|
B ||--------0-----3-------------|--L-------------------------|--------0-----3-------------|--L-----0-----------3-------|
F#||o-------0-----1-------------|--L-------------------------|--------0-----1-------------|--L-----------3-------------|
D ||o-------2-------------------|--L-------------------------|--------2-------------------|--L-------------------------|
A ||-----2----------------------|--L-------------------------|-----2----------------------|--L-------------------------|
E ||--0-------------------------|--L-------------------------|--0-------------------------|--L-------------------------|


      E  E  Q     H                Q.       S S E  E  E  E       E  E  Q     H                W
   |----------------------------|-----------2-3-2------------|----------------------------|----------------------------|
   |--0-----0-----3-------------|--L---------------3-----1---|--0-----0-----3-------------|--L-------------------------|
   |--------0-----1-------------|--L------------------3------|--------0-----1-------------|--L-------------------------|
   |--------2-------------------|--L-------------------------|--------2-------------------|--L-------------------------|
   |-----2----------------------|--L-------------------------|-----2----------------------|--L-------------------------|
   |--0-------------------------|--L-------------------------|--0-------------------------|--L-------------------------|
				

      E  E  Q     H                H.                E  E       E  E  Q     H                W
   |--2-------------------------|----------------------------|----------------------------|----------------------------|
   |--------0-----3-------------|----------------------------|--------0-----3-------------|--L-------------------------|
   |--------0-----1-------------|--3-----------------L--1----|--0-----0-----1-------------|--L-------------------------|
   |--------2-------------------|----------------------------|--------2-------------------|--L-------------------------|
   |-----2----------------------|----------------------------|-----2----------------------|--L-------------------------|
   |--0-------------------------|----------------------------|--0-------------------------|--L-------------------------|



      E  E  Q     H                H.                E  E       E  E  E  E  H                W
   |--2-------------------------|----------------------------|----------------------------|----------------------------|
   |--------0-----3-------------|----------------------------|--------0-----3-------------|--L-------------------------|
   |--------0-----1-------------|--3-----------------L--1----|--0-----0--1--3-------------|--L-------------------------|
   |--------2-------------------|----------------------------|--------2-------------------|--L-------------------------|
   |-----2----------------------|----------------------------|-----2----------------------|--L-------------------------|
   |--0-------------------------|----------------------------|--0-------------------------|--L-------------------------|



      E  E  Q     H                H            E.  E.  E       E  E  Q     H                W
   |----------------------------|---------------5---3---2----|----------------------------|----------------------------|
   |--------0-----3-------------|--L-------------------------|--3-----0-----3-------------|--L-------------------------|
   |--------0-----1-------------|--L-------------------------|--------0-----1-------------|--L-------------------------|
   |--------2-------------------|--L-------------------------|--------2-------------------|--L-------------------------|
   |-----2----------------------|--L-------------------------|-----2----------------------|--L-------------------------|
   |--0-------------------------|--L-------------------------|--0-------------------------|--L-------------------------|



      E  E  Q     H                H.                E  E       E  E  Q     H                W
   |--2-------------------------|----------------------------|----------------------------|----------------------------|
   |--------0-----3-------------|----------------------------|--------0-----3-------------|--L-------------------------|
   |--------0-----1-------------|--3-----------------L--1----|--0-----0-----1-------------|--L-------------------------|
   |--------2-------------------|----------------------------|--------2-------------------|--L-------------------------|
   |-----2----------------------|----------------------------|-----2----------------------|--L-------------------------|
   |--0-------------------------|----------------------------|--0-------------------------|--L-------------------------|



      E  E  Q     H                H.                E  E       E  E  E  E  Q     Q          H           H
   |--2-------------------------|----------------------------|----------------------------|--2-----------5-------------|
   |--------0-----3-------------|----------------------------|--------0-----------3-------|----------------------------|
   |--------0-----1-------------|--3-----------------L--1----|--0-----0--1--3-------------|----------------------------|
   |--------2-------------------|----------------------------|--------2-------------------|----------------------------|
   |-----2----------------------|----------------------------|-----2----------------------|----------------------------|
   |--0-------------------------|----------------------------|--0-------------------------|----------------------------|



      E  E  Q     H                W                            E  E  Q     H                W
   |--10------------------------|----------------------------|----------------------------|----------------------------||
   |--------0-----3-------------|--L-------------------------|--------0-----3-------------|--L-------------------------||
   |--------0-----1-------------|--L-------------------------|--------0-----1-------------|--L------------------------o||
   |--------2-------------------|--L-------------------------|--------2-------------------|--L------------------------o||
   |-----2----------------------|--L-------------------------|-----2----------------------|--L-------------------------||
   |--0-------------------------|--L-------------------------|--0-------------------------|--L-------------------------||

Login or Register to remove this ad.