Stories (Code Geass) Guitar Tab

Submitted: Aug 12, 2010 by Bhael

5
Average: 5 (9 votes)
Download | Listen
Game: Code Geass
Composer(s): Hitomi Kuroishi
Style: Arrangement, Fingerstyle

AutoScroll: Slow | Medium | Fast
                                   Stories               
                                  Code Geass                       
                                Hitomi Kuroishi

Capo 1



     E  E  E  E  E  E  E  E     E  E  E  E  E  E  E  E   
E||--------------------------|--------------------------|
B||--4-----4-----2-----2-----|--4-----4-----4-----4-----|
G||-----4-----4-----3-----3--|-----4-----4-----3-----3--|
D||--------------------------|--------------------------|
A||--------------------------|--------------------------|
E||--4-----4-----2-----2-----|--0-----0-----2-----2-----|


          ^           ^               ^               
    E  E  E  E  E  E  E  E     E  S S Q    Q    Q     
|------------------4--2-----|------------------------|
|------4--4--4--4-----2--4--|--2----0----------------|
|*--------4-----------3-----|---------1--------------|
|*--------6-----------------|-----2---2--------------|
|---------------------------|------------------------|
|---4-----4-----2-----2-----|--0------0----2----2----|


        ^           ^               ^                 
  E  E  E  E  E  E  E  E     E  S S Q    Q    Q       
-----------------4--2-----|-------------------------||
-----4--4--4--4-----2--4--|--2----0-4---------------||
--------4-----------3-----|---------1--------------*||
--------6-----------------|-----2---2--------------*||
--------------------------|-------------------------||
--4-----4-----2-----2-----|--0------0----2----2-----||


        ^           ^                                 
  E  E  E  E  E  E  E  E     E  E  E  E  E  E  E  E   
-----7--6--4--6--4--2-----|--0-----0-----------4--6--|
--------4-----------2--4--|-----------4--4-----------|
--------4-----------3-----|-----------------3--------|
--------------------------|-----2--------------------|
--------------------------|--------------------------|
--4-----4-----2-----2-----|--0-----0-----2-----2-----|


  E  E    Q    E  E    Q       E  E  E  E  E  E  E  E   
--7-----<>4----6-----<>4----|--4-----6--7--6-----------|
-----4----------------------|--------------------2-----|
------------------3---------|-----------------3-----3--|
----------------------------|-----6--------------------|
----------------------------|--------------------------|
--4-------4----2-------2----|--0-----0-----2-----2-----|


  E  E  E  E  E  E  E  E     E  E  E  E  E  E  E  E   
--------------2-----2-----|--0-----------------------|
--2--------4-----------4--|-----4--2--0--4-----4-----|
--------4--------4--------|-----------------4-----4--|
-----4--------------------|--------------------------|
--------------------------|--------------2-----2-----|
--------------0-----0-----|--2-----2-----------------|


  E  E  E  E  E  E  E  E     E  E  E  E  E  E  E  E   
--------------2-----2-----|--0-----------0-----------|
-----------4-----------4--|-----4--2--0--4-----4-----|
--------4--------4--------|-----------------4-----4--|
-----4--------------------|--------------------------|
--------------------------|--------------2-----2-----|
--4-----4--2--0-----0-----|--2-----2-----------------|


  E  E  E  S  S E  E  E  E     E  E  E  E  Q    Q     
----------------------------|------------------------|
--2-------------0--0--0--0--|--0-----------0---------|
--------4--1s-3-------------|-----3--1--3------------|
-----4----------------------|-------------------4----|
----------------------------|------------------------|
--4-----4-------0-----0-----|--2-----2-----4----4----|


  E  E  E  E  E  E  E  E     E  E  E.  S E  E  E  E   
--------------------------|--------------------------|
-----------------0--0--4--|--2--0------0-0-----------|
--3--4--3-----------------|--------3-----------2-----|
-----------4--------------|-----------------2-----2--|
--------------------------|--------------2-----------|
--2-----2-----0-----0-----|--2-----2-----------------|


                             ^                                            
  E  E  E  E  E  E  E  E     W                   E  E  E  E  E  E  E  E   
--------------------------|-------------------|--------------------------|
--------------0-----------|-------------------|--4-----4-----2-----2-----|
--2-----2-----------1-----|--1----------------|-----4-----4-----3-----3--|
-----2-----2-----2-----2--|--2----------------|--------------------------|
--------------2-----------|--2----------------|--------------------------|
--------------------------|-------------------|--4-----4-----2-----2-----|


                                     ^           ^      
  E  E  E  E  E  E  E  E       E  E  E  E  E  E  E  E   
--------------------------||------------------4--2-----|
--4-----4-----4-----4-----||------4--4--4--4-----2--4--|
-----4-----4-----3-----3--||*--------4-----------3-----|
--------------------------||*--------6-----------------|
--------------------------||---------------------------|
--0-----0-----2-----2-----||---4-----4-----2-----2-----|


         ^                       ^           ^               ^                 
  E  S S Q    Q    Q       E  E  E  E  E  E  E  E     E  S S Q    Q    Q       
------------------------|-----------------4--2-----|-------------------------||
--2----0----------------|-----4--4--4--4-----2--4--|--2----0-4---------------||
---------1--------------|--------4-----------3-----|---------1--------------*||
-----2---2--------------|--------6-----------------|-----2---2--------------*||
------------------------|--------------------------|-------------------------||
--0------0----2----2----|--4-----4-----2-----2-----|--0------0----2----2-----||


        ^           ^                                 
  E  E  E  E  E  E  E  E     E  E  E  E  E  E  E  E   
-----7--6--4--6--4--2-----|--0-----0-----------4--6--|
--------4-----------2--4--|-----------4--4-----------|
--------4-----------3-----|-----------------3--------|
--------------------------|-----2--------------------|
--------------------------|--------------------------|
--4-----4-----2-----2-----|--0-----0-----2-----2-----|


  E  E    Q    E  E    Q       E  E  E  E  E  E  E  E   
--7-----<>4----6-----<>4----|--4-----6--7--6-----------|
-----4----------------------|--------------------2-----|
------------------3---------|-----------------3-----3--|
----------------------------|-----6--------------------|
----------------------------|--------------------------|
--4-------4----2-------2----|--0-----0-----2-----2-----|


          ^           ^               ^               
    E  E  E  E  E  E  E  E     E  S S Q    Q    Q     
|------------------4--2-----|------------------------|
|------4--4--4--4-----2--4--|--2----0----------------|
|*--------4-----------3-----|---------1--------------|
|*--------6-----------------|-----2---2--------------|
|---------------------------|------------------------|
|---4-----4-----2-----2-----|--0------0----2----2----|


        ^           ^               ^                 
  E  E  E  E  E  E  E  E     E  S S Q    Q    Q       
-----------------4--2-----|-------------------------||
-----4--4--4--4-----2--4--|--2----0-4---------------||
--------4-----------3-----|---------1--------------*||
--------6-----------------|-----2---2--------------*||
--------------------------|-------------------------||
--4-----4-----2-----2-----|--0------0----2----2-----||


        ^           ^                                 
  E  E  E  E  E  E  E  E     E  E  E  E  E  E  E  E   
-----7--6--4--6--4--2-----|--0-----0-----------4--6--|
--------4-----------2--4--|-----------4--4-----------|
--------4-----------3-----|-----------------3--------|
--------------------------|-----2--------------------|
--------------------------|--------------------------|
--4-----4-----2-----2-----|--0-----0-----2-----2-----|


  E  E    Q    E  E    Q       E  E  E  E  E  E  E  E   
--7-----<>4----6-----<>4----|--4-----6--7--6-----------|
-----4----------------------|--------------------2-----|
------------------3---------|-----------------3-----3--|
----------------------------|-----6--------------------|
----------------------------|--------------------------|
--4-------4----2-------2----|--0-----0-----2-----2-----|


  E  E  E  E  E  E  E  E     E  E  E  E  E  E  E  E   
--------------2-----2-----|--0-----------------------|
--2--------4-----------4--|-----4--2--0--4-----4-----|
--------4--------4--------|-----------------4-----4--|
-----4--------------------|--------------------------|
--------------------------|--------------2-----2-----|
--------------0-----0-----|--2-----2-----------------|


  E  E  E  E  E  E  E  E     E  E  E  E  E  E  E  E   
--------------2-----2-----|--0-----------0-----------|
-----------4-----------4--|-----4--2--0--4-----4-----|
--------4--------4--------|-----------------4-----4--|
-----4--------------------|--------------------------|
--------------------------|--------------2-----2-----|
--4-----4--2--0-----0-----|--2-----2-----------------|


  E  E  E  S  S E  E  E  E     E  E  E  E  Q    Q     
----------------------------|------------------------|
--2-------------0--0--0--0--|--0-----------0---------|
--------4--1s-3-------------|-----3--1--3------------|
-----4----------------------|-------------------4----|
----------------------------|------------------------|
--4-----4-------0-----0-----|--2-----2-----4----4----|


  E  E  E  E  E  E  E  E     E  E  E.  S E  E  E  E   
--------------------------|--------------------------|
-----------------0--0--4--|--2--0------0-0-----------|
--3--4--3-----------------|--------3-----------2-----|
-----------4--------------|-----------------2-----2--|
--------------------------|--------------2-----------|
--2-----2-----0-----0-----|--2-----2-----------------|


  E  E  E  E  E  E  E  E     E  E  E  E  E  E  E  E   
--------------------------|-----------4--7-----7--4--|
--------------0-----------|--------5--------0--------|
--2-----2-----------1-----|--1--4--------------------|
-----2-----2-----2-----2--|--------------------------|
--------------2-----------|--------------0-----0-----|
--------------------------|--------------------------|


  E  E  E  E  E  E  E  E     E  E  E  E  E  E  E  E   
--5--4--2--0--4-----4-----|-----------4--7-----7--4--|
--------------------------|--------5--------0--------|
-----------------4-----4--|-----4--------------------|
--------------------------|--------------------------|
--2-----2-----------------|--4-----2-----0-----0-----|
--------------0-----0-----|--------------------------|


  ^                                                     
  E  E  E  E  E  E  E  E     E  E  E  S  S E  E  E  E   
--5--4--2--0--4-----4-----|--4-------------0-----0-----|
--5--------------5-----5--|-----5--4--2h-4-------------|
--------------------------|-------------------2-----2--|
--------------------------|----------------------------|
--2-----2-----------------|--4-----4-------0-----0-----|
--------------0-----0-----|----------------------------|


  E  E  E  E  E  E  E  E     E  E  E  E  E  E  E  E   
--0-----------0--4--2--0--|-----0--2-----0-----0--4--|
-----4--2--4--------------|--4--------------2--------|
--------------------------|--------------------------|
--------------------------|--------------------------|
--2-----2-----4-----4-----|--------------0-----0-----|
--------------------------|-----2--4--2--------------|


  E  E  E.  S E  E  E  E     E  E  Q    Q    Q       E  E  E  E  E  E  E  E   
--2--0------0-0-----------|-----------------------|--------------2-----2-----|
--------4-----------------|-----------------------|-----------4-----------4--|
--------------2-----4-----|--2----------1----4----|--3-----4--------4--------|
-----------------2-----2--|-----2--4--------------|-----4--------------------|
--2-----2-----------------|-----------------------|--------------------------|
--------------0-----0-----|--0-----0----0----0----|--2-----------0-----0-----|


  E  E  E  E  E  E  E  E     E  E  E  E  E  E  E  E   
--0-----------------------|--------------2-----2-----|
-----4--2--0--4-----4-----|-----------4-----------4--|
-----------------4-----4--|--------4--------4--------|
--------------------------|-----4--------------------|
--------------2-----2-----|--------------------------|
--2-----2-----------------|--4-----4--2--0-----0-----|


  E  E  E  E  E  E  E  E     E  E  E  S  S E  E  E  E   
--0-----------0-----------|----------------------------|
-----4--2--0--4-----4-----|--2-------------0--0--0--0--|
-----------------4-----4--|--------4--1s-3-------------|
--------------------------|-----4----------------------|
--------------2-----2-----|----------------------------|
--2-----2-----------------|--4-----4-------0-----0-----|


  E  E  E  E  Q    Q       E  E  E  E  E  E  E  E     E  E  E.  S E  E  E  E   
------------------------|--------------------------|--------------------------|
--0-----------0---------|-----------------0--0--4--|--2--0------0-0-----------|
-----3--1--3------------|--3--4--3-----------------|--------3-----------2-----|
-------------------4----|-----------4--------------|-----------------2-----2--|
------------------------|--------------------------|--------------2-----------|
--2-----2-----4----4----|--2-----2-----0-----0-----|--2-----2-----------------|


                             ^                                            
  E  E  E  E  E  E  E  E     W                   E  E  E  E  E  E  E  E   
--------------------------|-------------------|--------------------------|
--------------0-----------|-------------------|--4-----4-----2-----2-----|
--2-----2-----------1-----|--1----------------|-----4-----4-----3-----3--|
-----2-----2-----2-----2--|--2----------------|--------------------------|
--------------2-----------|--2----------------|--------------------------|
--------------------------|--0----------------|--4-----4-----2-----2-----|


  E  E  E  E  E  E  E  E     E  E  E  E  E  E  E  E   
--------------------------|--------------------------|
--4-----4-----4-----4-----|--4-----4-----2-----2-----|
-----4-----4-----3-----3--|-----4-----4-----3-----3--|
--------------------------|--------------------------|
--------------------------|--------------------------|
--0-----0-----2-----2-----|--4-----4-----2-----2-----|


  E  E  E  E  E  E  E  E     E  E  E  E  E  E  E  E    
--------------------------|--------------------------||
--4-----4-----4-----4-----|--4-----4-----2-----2-----||
-----4-----4-----3-----3--|-----4-----4-----3-----3--||
--------------------------|--------------------------||
--------------------------|--------------------------||
--0-----0-----2-----2-----|--4-----4-----2-----2-----||




Duration Legend
---------------
W - whole
H - half
Q - quarter
E - 8th
S - 16th
T - 32nd
X - 64th
. - note dotted
|-n-|  - n-tuplets


Tablature Legend
----------------
L - tied note
x - dead note
g - grace note
(n) - ghost note
> - accentuded note
NH - natural harmonic
AH - artificial harmonic
TH - tapped harmonic
SH - semi harmonic
PH - pitch harmonic
h - hammer on
p - pull off
b - bend
br - bendRelease
pb - preBend
pbr - preBendRelease
brb - bendReleaseBend
\n/ - tremolo bar dip
\n - tremolo bar dive
-/n - tremolo bar Release up
/n\ - tremolo bar inverted dip
/n - tremolo bar return
-\n - tremolo bar Release down
S - shift slide
s - legato slide
/ -  slide into from below or out of upwards
\ -  slide into from above or out of downwards
~ - vibrato
W - wide vibrato
tr - trill
TP - tremolo picking
T - tapping
S - slap
P - pop
< - fade in
^ - brush up
v - brush down
Login or Register to remove this ad.

4 comments on Stories

WAHAHA! Oh man, this is one

5

WAHAHA!

Oh man, this is one of the best songs from CG!
Props, good tab!

Is this my birthday or

5

Is this my birthday or something? Your choice of songs never fails to bring me joy. This is, without a doubt, the best song in Code Geass' OST, and you made an excelent arrangement of it.

I like the steadyness of the rithym; fits the song perfectly. It feels good to play it, it's not impossibly hard, neither too easy. There were some neatly put harmonics, too!

Congratulations for your hard work, and thank you very much for sharing it with us!

I love the konstant bass

5

I love the constant bass line.. and the song as a whole of course ;)

Ta!

Ta!