Ads

Continued Story (Code Geass) Ukulele Tab

Submitted: May 16, 2015 by CandyCane52

3
Average: 3 (2 votes)
Download | Listen
Game: Code Geass
Composer(s): Hitomi Kuroishi
Style: Transcription

AutoScroll: Slow | Medium | Fast
Continued Story
Code Geass
Kuroishi Hitomi
CandyCane52
04/05/2015
 :00										 :24/:39						     
G------------------------------------------------------------------------	---------------------------------------------------------------------------
C--------2-------------2----4-----2-----1----------------2--2----3--3----	-3s4-4-4------------------------------------------4--4--4--------------3---
E-----5--5--5-----0----2----3-2-3-3-2-3-0----0--0h2h3----2----0-----2----	---------0h2h4-4--0p4p2p0-0-2h4p2--2-4------------4--4----4-2--0-2-0-0-----
A-3-5-7--5-----5--3--5-0----------------2--0-----------2-0-------------2-	------------------0---------------------0--0--0-2-----------------(0-2)--x2
 :56					      1:03	      
G-------------------------------------------------------------------------------
C-----------------------1---1-------------------------------------1---1---------
E------------4-2-0h2p0----0--0-------4--5p4p2----------4-2-0h2p0----0--0------4-
A-9--7-6-4-2------------------2--0-4-----------7-6-4-2-----------------2--0-4---
  1:10
G----------------0---0-----------2--2------------------0--0--0---------2-2----------------------4-----
C-2----2---------------2-2--2-----------------------------------2--2-------------------------4--4--4--
E-3----3--7--10--0---0-2-3--3----0--0-----3-3----------0--0--0--3--3---0-0-----3-3-----------4--4--4--
A-2----2--5--10----------2--2----3--3-2-0-----0h2p0-------------2--2---3-3-2-0-----0h2p0--0--------7--
 1:33			 
G--------------------2-----------------------0-----------0---------------------------------------------------
C-----------2-----2----------2--4--4-4-2-2-2-1-----------0-----9-------------------------------3-------------
E-----0-----------2--0-------2---3-2-3-3-2-3----0-0--0h2-0--7----10-10----------10-----5----7----2-2-2-2-2-2-
A-3-5-7-0---5--0--5--3--0--5p0---------------2--0-------------12-------10-10-12-12--0--5----7------2---2---6-
 2:00
G-0--0---0-------------------------0--0--0----------2-2------------------0--0--------------2-2-----------------------4--4-
C-------------------------------------------2--2----0-0------------------------0-2-2--2---------------------------4--4--4-
E-0--0------0--------3-3-----------0--0--0--3--3------------3-3----------0--0--0-2-3--3----0-0-----3-3------------4--4--4-
A------0-2--3--3-2-0-----0h2p0--------------2--2----3-3-2-0-----0h2p0----------0-0-2--2----3-3-2-0-----0h2p0---0--------7-
 2:28		(last two one octave up)		3:30
G----------------------------------------------------	-----------------
C-(4)------------------------1---1-------------------	---------------4-
E-(4)-------------4-2-0h2p0----0--2-------4--5p4p2---	-0-2-4-7-------4-
A-----(2)-7-6-4-2------------------2--0-4----------x8	---------7--2--2-
Login or Register to remove this ad.