Login or Register to remove this ad.

Ushio (Clannad) Guitar Tab

Submitted: Jul 12, 2013 by Basisti94

5
Average: 5 (4 votes)
Download | Listen
Game: Clannad
Composer(s): Jun Maeda
Style: Arrangement, Fingerstyle

This song is also called Title Theme

AutoScroll: Slow | Medium | Fast
                     Ushio 
                                
Clannad
Jun Maeda
Guitar arrangement by Basisti94 (Miro Laaksonen)
11.7.2013


Capo 2
Tempo ~ 84

     H.           Q       E  E  E  E  Q    E  E     E  E  E  E  Q    E  E   
E||--------------------|--4-------------------4--|--5----------------5--7--|
B||---------------0----|-------------------0-----|-------------------------|
G||--------------------|--------------1----------|--------------2----------|
D||--------------------|--------2--4-------------|-----------4-------------|
A||--------------------|-----2-------------------|-----2--4----------------|
E||--------------------|--0----------------------|--0----------------------|


  E  E  E  E  H           E  E  E  E  Q    E  E     E  E  E  E  Q    E  E   
--4--------------------|--L-------------------2--|--4-------------------4--|
-----------------------|-------------------------|-------------------0-----|
--------------1--------|--------------2----4-----|--------------1----------|
--------2--4-----------|-----------4-------------|--------2--4-------------|
-----2-----------------|-----2--4----------------|-----2-------------------|
--0--------------------|--0----------------------|--0----------------------|


  E  E  E  E  Q    E  E     E  E  E  E  Q    Q       Q    E  E  E  E  E  E   
--5----------------5--7--|--4---------------------|-------------------------|
-------------------------|-------------------4----|--5----5-----4-----------|
--------------2----------|------------------------|--6----6--6-----4--------|
-----------4-------------|--------2--4--6----6----|--6----6-----------6--4--|
-----2--4----------------|-----2------------------|--4----------------------|
--0----------------------|--0----------------4----|-------------4-----------|


  E  E  E  E  E  E  E  E     E  E  E  E  E  E  E  E   
--0-----------------5--4--|--2-----------------4-----|
-----------0--2-----2-----|-----------2--7--------4--|
--------2--------2--------|--------4-----------------|
--2--2--------------------|-----4--------------6-----|
--0-----------------------|--2--------------6--------|
--------------------------|--------------4-----------|


                             ^                                      ^         
  E  E  E  E  E  E  E  E     E  E  E  E  E  E  E  E     E  E  E  E  H         
--0-----------------0-----|--------------5-----5--4--|--2--------------------|
--------7-----4--------0--|--2-----2--5-----2--------|-----------5--4--------|
-----------6--------------|--2--4--------------------|--------4-----4--------|
-----6-----------4--------|--2-----------------------|-----4--------4--------|
--4-----------2-----------|--0-----------0-----------|--2-----------2--------|
--------6-----------4-----|--------------------------|-----------------------|


  E  E  E  E  E  E  E  E     E  E  E  E  E  E  E  E   
--2-----------4-----------|--------------------------|
--------------------5--4--|--4--5--2-----------------|
-----------4--------------|--------2-----2-----4-----|
--------2--------2-----2--|-----2-----2-----2-----2--|
-----2--------------------|--0-----------------------|
--0-----------------------|--------------------------|


  E  E  E  E  E  E  E  E     E  E  E  E  E  E  E  E   
--2-----------4-----------|--------------------------|
--------------------5--4--|--4--5--2-----------0--2--|
--------------------------|--------2-----2-----2-----|
--------2--------2-----2--|-----2-----2-----2--------|
-----2-----2--------------|--0-----------------------|
--0-----------------------|--------------------------|

                            rall
                                   ^                  
  E  E  E  E  E  E  E  E     E  E  E  E  E  E  E  E   
--------------------------|--------5--4--2--------2--|
--4-----------5--4--5-----|--2-----2--------5--4-----|
--------4-----------6--4--|--------2-----------4--2--|
--------6--------6--------|-----2-----------4--------|
-----6-----6--4-----------|--0-----------2-----------|
--4-----------------------|--------------------------|


                                         ^          
  E  E  E  E  E  E  E  E     E  E  E  E  H          
--0-----------------------|--------2--4--4--------||
--------2-----0-----------|--------------4--------||
--------------------2-----|--1-----------4--------||
--------2-----4-----4-----|--------2-----6--------||
-----2-----2-----2-----2--|-----2--------6--------||
--0-----------------------|--0-----------4--------||




I've wanted to do Clannad arrangement for a while now but I wasn't
able to pick a song until I randomly opened the VN and heard this 
on title screen :P


Duration Legend
---------------
W - whole
H - half
Q - quarter
E - 8th
S - 16th
T - 32nd
X - 64th
. - note dotted
|-n-|  - n-tuplets


Tablature Legend
----------------
rall. - gradually decrease tempo
L - tied note
x - dead note
g - grace note
(n) - ghost note
> - accentuded note
NH - natural harmonic
AH - artificial harmonic
TH - tapped harmonic
SH - semi harmonic
PH - pitch harmonic
h - hammer on
p - pull off
b - bend
s - slide
/ -  slide into from below or out of upwards
\ -  slide into from above or out of downwards
~ - vibrato
W - wide vibrato
tr - trill
TP - tremolo picking
T - tapping
S - slap
P - pop
< - fade in
^ - brush up
v - brush down
Login or Register to remove this ad.

19 comments on Ushio

Sounds really good xD

There's one chord that i think would sound great in ur tab xD
the last chord in this song.
Try this: (this chord is without the capo)
|-13~-----|
|-14~-----|
|-15~-----|
|---------|
|---------|
|---------|
instead of:
|--4~-|
|--4~-|
|--4~-|
|--6~-|
|--6~-|
|--4~-|

Btw

the actual name of this song is Shio
http://www.youtube.com/watch?v=izGHn4fFihw

The vocal version is called Komorebi
http://www.youtube.com/watch?v=I011ZAB_BXg

And the Memento Remix Album version is called Ushio
http://www.youtube.com/watch?v=x5qbZYdFrCU

Are you sure about the Shio?

Are you sure about the Shio? According to this site http://clannad.wikia.com/wiki/Ushio_(song), Ushio is correct. I guess the confusion is caused by the fact that 'Ushio' is written with kanji for 'Shio' (汐), which means tide. I think. I'm not an expert.

But you are right about that last chord, it does sound bit better.

I haven't played the game,

I haven't played the game, but I looked up the title on Japanese Wikipedia, and it was listed as 汐 without a reading. Well, shio would be the usual reading there, but ushio is also possible (see Wiktionary). So how do we choose?

It looks like there's a character named Ushio, so that sounds like the right reading in this context... My guess is that both song titles should be read the same way (probably Ushio), and that the difference is because whoever uploaded the first track on Youtube read the title the wrong way. So I'd leave yours as Ushio unless someone finds something more conclusive saying it's wrong.

Verifying

The only way to verify this is if u got the actual CD that has this song on it. And whatever the name of the song is on that CD is the official name of this song.

Yes

Yes I am sure of it. It's called Ushio on the wikia, because that's what some random person calls it. Wikia sites have information that is not always legit. But I've looked all around the web and saw that it's called Shio. I dnt remember what the name of the website was called unfortunately. But the name Shio is legit. I'm very familiar with the Japanese names of Clannad and other anime :P

Every single different wiki

Every single different wiki site, and the VGMdb (http://vgmdb.net/album/555) lists it as 'Ushio' or "'Ushio' (汐)". The home page of Key Sounds Label (http://key.soundslabel.com/ost.html), the most official source, lists it as "汐".
Reading the kanji as "Ushio" makes sense also storywise, as it is the name of important character, and this alternative reading is precisely mentioned in the anime and visual novel. Only source where I saw the use of name 'Shio' for the song, was some Youtube videos.
So yeah, I'm not really convinced about 'Shio'.

As I said Before

as i said before, the only way to really verify it is if u got the cd that has that song. And look on the back of the case to see the name of the song. whatever the name of that song it says is the official name. Even if i did that, no one would have a reason to believe me.

Every website that sells it

Every website that sells it says it's just 汐, which means you have to decide how to read it. Looking at a picture of the back of the CD, you can see it's true on the album itself, as well. The reason people disagree about how to read it (Shio or Ushio) is because there's no reading specified and more than one is possible.

I'm still not convinced, so I'm going with Ushio. If you can find some evidence somewhere that it's Shio and feel strongly about it, please feel free to present it! No one thinks you're lying or anything like that--it's just that you haven't found anything convincing yet.

Whatever...

Yeah whatever, this isn't worth getting all worked up over. If you wanna call it Ushio, go ahead. Hell, you can call it ur ass for all i care. No one will stop u. Just drop it and move on. I know i will.

I don't think anyone's

I don't think anyone's getting upset here...?

im absolutely livid

im absolutely livid

wtf am I reading

...

Nothing

Yeah, uh-huh, whatever. I'm

Yeah, uh-huh, whatever. I'm done talking about this

fite me irl

fite me irl

??? i dnt understand...

??? i dnt understand...

lul wut?

lul wut?

Ending chord

5

I like to use this chord at the end of the song (With capo on 2)

e ---11---
b ---0----
g ---9----
d ---6----
a ---7----
E ---0----