Toki wo Kizamu Uta (Clannad) Guitar Tab

Submitted: Nov 12, 2013 by corntastic

4
Average: 4 (4 votes)
Download | Listen
Game: Clannad
Composer(s): Jun Maeda
Style: Transcription

This song is also called A Song to Pass the Time

AutoScroll: Slow | Medium | Fast
Toki wo Kizamu Uta
Clannad
Jun Maeda, Lia
corntastic
8 11 2013


e-------------------------------------------------------------------------
B--8--7-------------------------7---------7----8--------------------------
G--------9--7-------------7--9-------9--------------9----9--7--7----------
D--------------9----7--9--------------------------------------------------
A-------------------------------------------------------------------------
E-------------------------------------------------------------------------

e-------------------------------------------------------------------------
B--8--7-------------------------7--------------10----8----7---------------
G--------9--7-------------7--9-------9----9------------------9--9---------
D--------------9----7--9--------------------------------------------------
A-------------------------------------------------------------------------
E-------------------------------------------------------------------------

e-------------------8----7------------------------------------------------
B--7--8--10----8--------------7--8--10----7-------------------------------
G----------------------------------------------7----7--9------------------
D-------------------------------------------------------------------------
A-------------------------------------------------------------------------
E-------------------------------------------------------------------------

e----------------------------------------------------7--------------------
B------------------10------------------7--8-------------------------------
G-----7--9----7----------7s9--------7----------9----------7---------------
D--7----------------------------------------------------------------------
A-------------------------------------------------------------------------
E-------------------------------------------------------------------------


e-------------------------------------------------------------------------
B--8--7-------------------------7---------7----8--------------------------
G--------9--7-------------7--9-------9--------------9----9--7--7----------
D--------------9----7--9--------------------------------------------------
A-------------------------------------------------------------------------
E-------------------------------------------------------------------------

e----------------------------------------------7--------------------------
B--8--7-------------------------7-------------------8--7--7---------------
G--------9--7-------------7--9-------9----9------------------9--9---------
D--------------9----7--9--------------------------------------------------
A-------------------------------------------------------------------------
E-------------------------------------------------------------------------

e-------------------8----7------------------------------------------------
B--7--8--10----8--------------7--8--10----7-------------------------------
G----------------------------------------------7----7--9------------------
D-------------------------------------------------------------------------
A-------------------------------------------------------------------------
E-------------------------------------------------------------------------

e----------------------------------------------------7--------------------
B------------------10------------------7--8-------------------------------
G-----7--9----7----------7s9--------7----------9----------7----6--7-------
D--7----------------------------------------------------------------------
A-------------------------------------------------------------------------
E-------------------------------------------------------------------------
______________________________________________________________________________________


e---------------------------------------------------10--7-----------------
B------------8----10----10------------8--8----10--------------------------
G-------7-----------------------------------------------------------------
D--7----------------------------------------------------------------------
A-------------------------------------------------------------------------
E-------------------------------------------------------------------------

e-------------------------------------------------------------------------
B--8----10----10------------7----8----------------------------------------
G-------------------------------------7-----------------------------------
D-------------------------------------------------------------------------
A-------------------------------------------------------------------------
E-------------------------------------------------------------------------

e------------------------------------------------10--7--------------------
B------------8----10----10------------8----10-----------------------------
G-------7-----------------------------------------------------------------
D--7----------------------------------------------------------------------
A-------------------------------------------------------------------------
E-------------------------------------------------------------------------

e-------------------------------------------------------------------------
B--8L--g10----10------------7----8----8-----------------------------------
G-------------------------------------------------------------------------
D-------------------------------------------------------------------------
A-------------------------------------------------------------------------
E-------------------------------------------------------------------------


______________________________________________________________________________________


e-------------------------------------------------------------------------
B-------------------------------------------------------------------------
G------------7------------------------------------------------------------
D--7--9-------------------------------------------------------------------
A--------10-----10--------------------------------------------------------
E------------------------------------------------------------------------- x 7

e-------------------------------------------------------------------------
B-------------------------------------------------------------------------
G------------9--7---------------------------------------------------------
D--7--9-------------------------------------------------------------------
A--------10---------------------------------------------------------------
E-------------------------------------------------------------------------

e-------------------------------------------------------------------------
B-------------------------------------------------------------------------
G------------7------------------------------------------------------------
D--7--9-------------------------------------------------------------------
A--------10-----10--------------------------------------------------------
E------------------------------------------------------------------------- x 6

e-------------------------------------------------------------------------
B-------------------------------------------------------------------------
G------------7------------------------------------------------------------
D--7--9-------------------------------------------------------------------
A--------10-----10--10----------------------------------------------------
E-------------------------------------------------------------------------


______________________________________________________________________________________



e-------------------------------------------------------------------------
B--8--7-------------------------7---------7----8--------------------------
G--------9--7-------------7--9-------9--------------9----9--7--7----------
D--------------9----7--9--------------------------------------------------
A-------------------------------------------------------------------------
E-------------------------------------------------------------------------

e----------------------------------------------7--------------------------
B--8--7-------------------------7-------------------8----7----------------
G--------9--7-------------7--9-------9----9-----------------9--9----------
D--------------9----7--9--------------------------------------------------
A-------------------------------------------------------------------------
E-------------------------------------------------------------------------

e-------------------8----7------------------------------------------------
B--7--8--10----8--------------7--8--10----7-------------------------------
G----------------------------------------------7----7--9------------------
D-------------------------------------------------------------------------
A-------------------------------------------------------------------------
E-------------------------------------------------------------------------

e----------------------------------------------------7--------------------
B------------------10------------------7--8-------------------------------
G-----7--9----7----------7s9--------7----------9----------7----6--7-------
D--7----------------------------------------------------------------------
A-------------------------------------------------------------------------
E-------------------------------------------------------------------------

______________________________________________________________________________________


e---------------------------------------------------10--7-----------------
B------------8----10----10------------8--8----10--------------------------
G-------7-----------------------------------------------------------------
D--7----------------------------------------------------------------------
A-------------------------------------------------------------------------
E-------------------------------------------------------------------------

e-------------------------------------------------------------------------
B--8----10----10------------7-7---8---------------------------------------
G--------------------------------------7----------------------------------
D-------------------------------------------------------------------------
A-------------------------------------------------------------------------
E-------------------------------------------------------------------------

e---------------------------------------------------10--7-----------------
B------------8----10----10------------8--8----10--------------------------
G-------7-----------------------------------------------------------------
D--7----------------------------------------------------------------------
A-------------------------------------------------------------------------
E-------------------------------------------------------------------------

e-------------------------------------------------------------------------
B--8----10----10------------7--7--8----8----------------------------------
G-------------------------------------------------------------------------
D-------------------------------------------------------------------------
A-------------------------------------------------------------------------
E------------------------------------------------------------------------- 

______________________________________________________________________________________ x 2


e--10--------7--------10--------7--------12--10----8--7--------7----------
B--------------------------------------------------------10---------------
G-------------------------------------------------------------------------
D-------------------------------------------------------------------------
A-------------------------------------------------------------------------
E-------------------------------------------------------------------------

e-------------------------------------------------------------------------
B-------------------------------------------------------------------------
G------------7------------------------------------------------------------
D--7--9-------------------------------------------------------------------
A--------10-----10--------------------------------------------------------
E------------------------------------------------------------------------- x 7

e-------------------------------------------------------------------------
B-------------------------------------------------------------------------
G------------9--7---------------------------------------------------------
D--7--9-------------------------------------------------------------------
A--------10---------------------------------------------------------------
E-------------------------------------------------------------------------

e-------------------------------------------------------------------------
B-------------------------------------------------------------------------
G------------7------------------------------------------------------------
D--7--9-------------------------------------------------------------------
A--------10-----10--------------------------------------------------------
E------------------------------------------------------------------------- x 6

e-------------------------------------------------------------------------
B-------------------------------------------------------------------------
G------------7------------------------------------------------------------
D--7--9-------------------------------------------------------------------
A--------10-----10--10----------------------------------------------------
E-------------------------------------------------------------------------
Login or Register to remove this ad.

1 comment on Toki wo Kizamu Uta

Amazing

5

Enjoyed playing it XD Good Job & Keep up the good work :3