Zeal Palace (Chrono Trigger) Guitar Tab

Submitted: Nov 22, 2010 by BacardiBreezer

5
Average: 5 (1 vote)
Download | Listen
Game: Chrono Trigger
Composer(s): Nobuo Uematsu, Yasunori Mitsuda, Noriko Matsueda
Style: Transcription
Series: Chrono

AutoScroll: Slow | Medium | Fast
Zeal Palace
Chrono Trigger
Composed by Yasunori Mitsuda
Tabbed by Bacardibreezer
11/19/10

e|--18---16------15-16-15---------------|
B|----------18--------------16--18~-----|
G|--------------------------------------|
D|--------------------------------------|
A|--------------------------------------|
E|--------------------------------------|

e|--13~------11~-----------------------13~---15-----------------------|
B|--13~------11~-----------------------13~---15---16~-----------------|
G|-------------------10----12---------------------15~---10-----12-----|
D|-------------------10----10---------------------------10-----10-----|
A|--------------------------------------------------------------------|
E|--------------------------------------------------------------------|


e|-------11--9---8------6---8---9----11---13----15~-----|
B|--14----------------------6---7----9----11----13~-----|
G|-------13--11--10-----8-------------------------------|
D|--16--------------------------------------------------|
A|------------------------------------------------------|
E|------------------------------------------------------|

This next part is just the trumpet. If you have something better for this section, please post it.


e|--10----10-10--|
B|--10----10-10--|
G|---------------|
D|---------------|
A|---------------|
E|---------------| x4


e|--3~---5-----------------|
B|---------6~--------3~----|
G|--------------5b6--------|
D|-------------------------|
A|-------------------------|
E|-------------------------| x2

e|--21-20---19-18---17-16---|
B|--------------------------|
G|--18-17---16-15---14-13---|
D|--------------------------|
A|--------------------------|
E|--------------------------|

Login or Register to remove this ad.