World Revolution (Chrono Trigger) Bass Tab

Submitted: Jul 19, 2009 by auriplane

0
Download | Listen
Game: Chrono Trigger
Composer(s): Nobuo Uematsu, Yasunori Mitsuda, Noriko Matsueda
Style: Transcription
Series: Chrono

AutoScroll: Slow | Medium | Fast
                Chrono Trigger - World Revolution BASS TAB
                        Song by Yasunori Mitsuda

                  Tabbed by auriplane ([email protected])


                                                              ------|
                                                              ------|
Five-string bass, standard tuning.                            ------|
                                                              --8-8-|
    Intro                                                     ------|

G |--------------------------------|--------------------------------| \
D |--------------------------------|--------------------------------|  |
A |--------------------------------|--------------------------------|  |
E |8-------------------------------|L---------------------------8-8-|  |
B |--------------------------------|--------------------------------|  |
                                                                       | x4
G |--------------------------------|--------------------------------|  |
D |--------------------------------|--------------------------------|  |
A |--------------------------------|--------------------6-----------|  |
E |8-------------------------------|L---------------L---------------|  |
B |--------------------------------|--------------------------------| /

    
                    TAP ALL NOTES after this point

    Part A  (Play twice)

G |--------------------------------|
D |------7-------5-------7-------5-|
A |--5-7-----5-7-----5-7-----5-7---| x8
E |5-------5-------5-------5-------|
B |--------------------------------|

G |--------------------------------|--------------------------------|
D |--------------------------------|--------------------------------|
A |----8-------8-------8-------8---|----10------10------10------10--| x3
E |--8---8---8---8---8---8---8---8-|--10--10--10--10--10--10--10--10|
B |6-------6-------6-------6-------|8-------8-------8-------8-------|

    Part B

G |--------------------------------|--------------------------------|
D |--------------------------------|----------5---5-----------------|
A |--7---------------8-------------|--7---7-------------------------| x4
E |5---5-----------6---6-----------|5---5---8---8-------------------|
B |--------------------------------|--------------------------------|

G |--------------------------------|
D |------7-------5-------7-------6-|
A |--5-7-----5-7-----5-7-----4-6---|
E |5-------5-------5-------4-------|
B |--------------------------------|

    Part C  (Play twice)

G |--------------------------------|
D |----6-------6-------6-------6---|
A |--6---6---6---6---6---6---6---6-| x4
E |4-------4-------4-------4-------|
B |--------------------------------|

G |--------------------------------|
D |--------------------------------|
A |--6---6---6---6---5---5---4---4-|
E |4---4---4---4-------------------|
B |----------------8---8---7---7---|

G |--------------------------------|
D |--------------------------------|
A |--3---3---3---3---4---4---4---4-| x4
E |--------------------------------|
B |6---6---6---6---7---7---7---7---|

    Part D

G |--------------------------------|------------------6---6---6---6-|
D |------------------6---6---6---6-|--7---7---7---7-----------------|
A |--7---7---7---7-----------------|----------------4---4---4---4---|
E |----------------4---4---4---4---|5---5---5---5-------------------|
B |5---5---5---5-------------------|--------------------------------|

G |--7---7---7---7---6---6---6---6-|--4---4---4---4---4---4---4---4-|
D |--------------------------------|--------------------------------|
A |5---5---5---5---4---4---4---4---|--------------------------------|
E |--------------------------------|7---7---7---7---7---7---7---7---|
B |--------------------------------|--------------------------------|

G |--------------------------------|
D |--8---8---8---8---8---8---8---8-|
A |--------------------------------| x4
E |6---6---6---6---6---6---6---6---|
B |--------------------------------|

    Repeat back to Part A.
Login or Register to remove this ad.