Ads

wind scene (Chrono Trigger) Guitar Tab

Submitted: Aug 24, 2020 by chimatte (Last updated: Sep 13, 2020)

5
Average: 5 (1 vote)
Download | Listen
Game: Chrono Trigger
Composer(s): Nobuo Uematsu, Yasunori Mitsuda, Noriko Matsueda
Style: Fingerstyle
Series: Chrono

Click here for a video example.

AutoScroll: Slow | Medium | Fast
                                WIND SCENE                                    


Traccia 1
     Q    Q    Q    Q       E  E  E  E  E  E  E  E     E  E  E  E  E  E  E  E   
E||-----------------0----|--1--0--------------------|--------------------------|
B||------------3---------|--------1-----3--L--L--3--|--1-----------------------|
G||----------------------|-----------2--------5--L--|-----2-----0--2--L--0--L--|
D||----------------------|--------2--L-----3--L--L--|-----2--3--------3-----2--|
A||----------------------|-----0--L--L--1--L--L--L--|--0--L--3--L--------------|
D||----------------------|--0--L--L--L--------------|--------------3--L--2--L--|


  E  E  E  E  E  E  E  E     E  E  E  E  Q    Q       E  E  E  E  E  E  E  E   
--------------0--L--------|-------------------0----|--1--0--------------------|
--------------------6--L--|--1--L--3--6--5---------|--------1-----3--L--L--3--|
--------2--5--5--L--0--L--|-----0--L-----5----L----|-----------2--------5--L--|
--2--3--2--L-----0--------|------------------------|--------2--L-----3--L--L--|
-----0--L--L--------------|--3--L--L---------------|-----0--L--L--1--L--L--L--|
--0--L--L--L--5--L-----5--|------------------------|--0--L--L--L--------------|


  E  E  E  E  E  E  E  E     E  E  E  E  E  E  E  E     E  E  E  E  Q    Q     
--------------------------|--------------0-----------|-------------------0----|
--1-----------------------|-----------------3--1--3--|--3--L--L-----3---------|
-----2-----0--2--L--0--L--|--------2--5-----0-----2--|--0--L--L--0------------|
-----2--3--------3-----2--|--2--3--2--L--------------|--------2--L--4----L----|
--0--L--3--L--------------|-----0--L--L--------0--L--|-----0--L--L--5----L----|
--------------3--L--2--L--|--0--L--L--L--5--L--------|--0--L--L--L------------|


     E   E   E   E   Q.      E     E   E   E   E   Q    Q     
|---13--12----------10------10--|--8-------------------------|
|-----------13--10--------------|-----10-------8--10----8----|
|*--10---L---L---L--10-------L--|--9---L--10---L--------6----|
|*---0---L---L---L---8-------L--|--7---L--10---L---7----7----|
|-------------------------------|------------------8----7----|
|-------------------------------|----------------------------|


  E  E  E  E   Q     Q        H        Q     Q       
--------5--8--12----13----|-----------------12-----||
--5--6--------------------|--13--------------------||
--5--L--L--L--10-----L----|--10--------9-----L----*||
--7--L--L--L--------------|--10-------------------*||
--5--L--L--L--10-----L----|------------------------||
--------------------------|------------------------||


  E  E  E  E   E   E  E   E      H         Q.      E   
--------5--8--12--10--8--10--|--10---------L----------|
--5--6-----------------------|---8---------7------10--|
--5--L--L--L---0---L---------|---7---------7-------L--|
--7--L--L--L----------7---L--|------------------------|
--5--L--L--L-----------------|------------------------|
-----------------------------|------------------------|


   E   E   E   E  E  E  E  E     E  E  E  E  E  E  E  E   
------------------------------|--------------------------|
--10---L---L---L--8--L--6--L--|--5--L--L--L--6--L--8--L--|
--10---L---L---L--9--L--7--L--|--5--L--L--L--7--L--9--L--|
------------------------------|--------------------------|
------------------------------|--------------------------|
---8---8---L---8--8--8-----8--|--8--8--L--8--8--8-----8--|


   E   E   E   E   E   E  E  E     E  E  E  E  E  E  E  E   
--------------------------------|--------------------------|
--------------------------1--L--|--------------------1--L--|
---9---L---L---L---L---L--2--L--|--2--L--L--L--------2--L--|
--10---L---L---L---L---L--------|--3--L--2--L--3--L--------|
---0---0---L---0---0---0--L--0--|--------------------------|
--------------------------------|--0--0--L--0--0--0--L--0--|


  E  E  E  E  E  E  E  E     E  E  E  E  E  E  E  E   
--------------------------|--0--L--L--L--1--L--3--L--|
--------------------3--L--|--1--L--L--L--3--L--5--L--|
--3--L--L--L--5--L--3--L--|--------------------------|
--5--L--L--L--7--L--------|--------------------------|
--------------------------|--3--3--L--3--3--3-----3--|
--5--5--L--5--5--5-----5--|--------------------------|


  E  E  E  E  E  E  E  E     E  E  E  E  E  E  E   E   
--0--L--L--L--L--L--L--L--|---------------------------|
--1--L--------------------|--1--L---------------------|
--------2--L--0--L--2--L--|--------------0------------|
--------------------------|--1--L--3--L-----7--8--10--|
--------------------------|---------------------------|
--3--3--L--3--3--3--L--3--|--3--3--L--3--3------------|


   E   E   E   E  E  E  E  E     E  E  E  E  E  E  E  E   
------------------------------|--------------------------|
--10---L---L---L--8--L--6--L--|--5--L--L--L--6--L--8--L--|
--10---L---L---L--9--L--7--L--|--5--L--L--L--7--L--9--L--|
------------------------------|--------------------------|
------------------------------|--------------------------|
---8---8---L---8--8--8-----8--|--8--8--L--8--8--8-----8--|


   E   E   E   E  E  E  E  E     E  E  E  E  E  E  E  E   
------------------------------|--0--L--------0--L--1--L--|
--10---L---L---L--8--L--6--L--|--------3--L--------------|
--10---L---L---L--9--L--7--L--|--2--L--L--L--L--L--L--L--|
------------------------------|--------------------------|
------------------------------|--2--2--L--2--2--2--L--2--|
---9---9---L---9--9--9-----9--|--------------------------|


  E  E  E  E  E  E  E  E     E  E  E  E  E  E  E  E   
--5--L--L--L--3--L--------|--0--L--------------------|
--------------------6--L--|--------------------------|
--------------------------|--------7--L--6--L--7--L--|
--0--L--L--L--L--L--L--L--|--0--L--L--L--L--L--L--L--|
--------------------------|--------------------------|
--5--5--L--5--5--5--L--5--|--6--6--L--6--6--6--L--6--|


  E  E  E  E  E  E  E  E     H        Q    Q      
--0--L--L--L--L--L--L--L--|--0--------L----0----||
--------------------------|--2--------3---------||
--------------------------|---------------------||
--0--0--L--0--0--0--L--0--|--2--------L----L----||
--0--0--L--0--0--0--L--0--|--0--------L----L----||
--------------------------|---------------------||




Duration Legend
---------------
W - whole
H - half
Q - quarter
E - 8th
S - 16th
T - 32nd
X - 64th
. - note dotted
|-n-|  - n-tuplets


Tablature Legend
----------------
L - tied note
x - dead note
g - grace note
(n) - ghost note
> - accentuded note
NH - natural harmonic
AH - artificial harmonic
TH - tapped harmonic
SH - semi harmonic
PH - pitch harmonic
h - hammer on
p - pull off
b - bend
br - bendRelease
pb - preBend
pbr - preBendRelease
brb - bendReleaseBend
\n/ - tremolo bar dip
\n - tremolo bar dive
-/n - tremolo bar Release up
/n\ - tremolo bar inverted dip
/n - tremolo bar return
-\n - tremolo bar Release down
S - shift slide
s - legato slide
/ -  slide into from below or out of upwards
\ -  slide into from above or out of downwards
~ - vibrato
W - wide vibrato
tr - trill
TP - tremolo picking
T - tapping
S - slap
P - pop
< - fade in
^ - brush up
v - brush down
Login or Register to remove this ad.