Wind Scene (Chrono Trigger) Guitar Tab

Submitted: Jun 18, 2013 by TheDoomOfAllFires (Last updated: Jun 18, 2013)

5
Average: 5 (9 votes)
Download | Listen
Game: Chrono Trigger
Composer(s): Nobuo Uematsu, Yasunori Mitsuda, Noriko Matsueda
Style: Arrangement, Fingerstyle
Series: Chrono

This song is also called 600 A.D.

AutoScroll: Slow | Medium | Fast
Title: Wind Scene - 600 A.D.
Artist: Nobuo Uematsu, Yasunori Mitsuda, Noriko Matsueda
Album: Chrono Trigger
Music: Nobuo Uematsu, Yasunori Mitsuda, Noriko Matsueda
Copyright: Nobuo Uematsu, Yasunori Mitsuda, Noriko Matsueda / SquareEnix
Tabber: TheDoomOfAllFires
Tempo = 85
Tune down 1/2 step



D#|--------0--2----||-3h-2--------0--------0----|----------------------------|
A#|----------------||-0-----3--0--1-------------|--3--0--------0-------------|
F#|----------------||o------------0-------------|--------0h-2--0-----2-------|
C#|----------------||o2-------------------------|--0-----0-----------0-------|
G#|----------------||-------------3-------------|----------------------------|
D#|----------------||---------------------------|--------------3-----2-------|


--------------2--------3----|--------------------2-------|
--------0--3----------------|--3-----3-------------------|
-----0--------------0-------|-----2-----0----------------|
--4-----------2-------------|--0-----------4-------------|
----------------------------|--------------5-------------|
--0-------------------------|----------------------------|


--3h-2--------0--------0----|----------------------------|
--0-----3--0----------------|--3--0--------0-------------|
--------------------0-------|--------0h-2--0-----2-------|
--2--------------2----------|--0-----0--------0--0-------|
--------------3-------------|----------------------------|
----------------------------|--------------3-----2-------|


--------------2h-0-----0----|--0-----0--2----|--3--2--------0--------0----|
--------0--3--------3-------|--0-------------|--0-----3--0----------------|
-----0--------------2-------|-----2--1-------|--0-----4-----------0-------|
--4-----------0-------------|--2-----2-------|--2--------------2----------|
----------------------------|----------------|--------------3-------------|
--0-------------------------|----------------|----------------------------|


----------------------------|--------------2--------3----|-----------2----|
--3h-0--------0-------------|--------0--3--0-------------|--3-------------|
--2-----0h-2--0-----2-------|-----0--------0-------------|--2--0--2-------|
--0-----0-----0-----0-------|--4-----2-------------------|--0-----4-------|
----------------------------|--2-------------------------|--------5-------|
--------------3-----2-------|--0-------------------------|----------------|


--3--2--------0-----0--0----|----------------------------|
--0-----3--0--------1-------|--3h-0--------0-------------|
--0-----4-----------0-------|--2-----0h-2--0-----2-------|
--2--------------2----------|--0-----0-----0--0--0-------|
--------------3-------------|----------------------------|
----------------------------|--------------3-----2-------|


--------------2--0-----0----|--0-----------0--------7----|
--------0--3--0-----3-------|--0-----------------0-------|
-----0--------0-----2-------|--------2-----1-------------|
--4-----2-------------------|--------------2-------------|
--2-------------------------|----------------------------|
--0-------------------------|--0-------------------------|


--7-----------5-----3-------|--2-----------3-----5-------|
-----0--------0-----0-------|--0--0--------0-----0-------|
-----0----------------------|--0--0----------------------|
----------------------------|----------------------------|
--3--------3-----3----------|--3--------3-----3----------|
----------------------------|----------------------------|


--2-----------2-------------|----------------------------|
--------------3-----3-------|--0-----------------3h-0----|
-----4--------4-----2-------|-----------0-----0----------|
-----4----------------------|--------2-----4-------------|
--2--------2----------------|-----2----------------------|
----------------------------|--0-------------------------|


--------------------0-------|--2-----------3-----5-------|
--1--------1--3-----1-------|-----------3----------------|
--------2-----------0-------|--------4-------------------|
-----2-----------2-----2----|-----4L-4L-4L-4L-4L-4-------|
--0-----------0-------------|--2--------------2----------|
----------------------------|----------------------------|


--2L----------------------2-------------------------|
--0-----------------------0-----------------0-------|
--0--------------------------------2----------------|
----------------------------------------------------|
----------------------------------------------------|
--3L----------------------3-------------------------|


----------------------------|--7-----------5-----3-------|
--3-------------------------|--0--0--------0-----0-------|
--4--------------4--5--7----|-----0----------------------|
-----------5s-7-------------|----------------------------|
----------------------------|--3--------3-----3----------|
--3-------------------------|----------------------------|


--2-----------3-----5-------|--7-----------5-----3-------|
--0--0--------0-----0-------|--0--0--------0-----0-------|
--0--0----------------------|-----0----------------------|
----------------------------|--0--------0-----0----------|
--3--------3-----3----------|----------------------------|
----------------------------|----------------------------|


--2-----0-----2-----3-------|--7-----------5-----3-------|
--------0-----------0-------|-----------5----------------|
-----0----------------------|--------6-------------------|
--0--------0----------------|-----7----------------------|
----------------------------|--0--------------0----------|
----------------------------|----------------------------|


--2-----0-----------0-------|--2-------------------------|--2-----0--2---||
--------------4-------------|-----------4-----------4----|--4------------||
----------------------------|--------4-----4-----4-------|--4-----------o||
-----2--------4-------------|-----4-----------4----------|--4-----------o||
--1-------------------------|--2-------------------------|--2------------||
----------------------------|----------------------------|---------------||


--2----||
--4----||
--4----||
--4----||
--2----||
-------||


Legend
L - tied note
x - dead note
h - hammer on/pull off
b - bend
s - slide
~ - vibrato
g - ghost note
> - accentuated note
t - trill
M - palm mute
. - staccato
P - popping (bass)
S - slapping (bass)
+ - tapping
W - wide vibrato
< - fade in
w - whammy bar
= - tremolo picking
v - brush up
^ - brush down
V - pick stroke up
n - pick stroke down


Login or Register to remove this ad.

4 comments on Wind Scene

i actually prefer the

5

i actually prefer the lonlonjp version, but this is quite good too! what the hell, i will play both

excellent version !

5

I like yr arrangment, also it seems easier to play in my opinion.

Thanks ;-)

neat

5

Hooray, it has been a while since your last tab. Still making 5 star material!

Thanks, guys ! And yeah, it's

Thanks, guys !
And yeah, it's been quite some time since my last tab, but I was toooo fucking busy to tab anything. Glad to know you like it anyway. More to come... If I have enough spare time ! :P