Ads

Wind Scene (Chrono Trigger) Guitar Tab

Submitted: Mar 02, 2011 by BacardiBreezer

5
Average: 5 (3 votes)
Download | Listen
Game: Chrono Trigger
Composer(s): Nobuo Uematsu, Yasunori Mitsuda, Noriko Matsueda
Style: Alternate picking, Transcription
Series: Chrono

Click here for a video example.

AutoScroll: Slow | Medium | Fast
Wind Scene
Chrono Trigger
Composer: Yasunori Mitsuda
Tabbed by: Bacardibreezer
2/25/11

e|----------------------------------------------------------| 
B|----5--6-5--------------------------------------5-6-------| 
G|--7--------5---7----7-5-----------------------5-----5-----| 
D|-------------7----------7---5-7-5-----------7-------------| 
A|--------------------------8-------------7-8---------------| 
E|----------------------------------------------------------| 

e|----------------------------------------------------------------|
B|--5--6-5-----------------------------------------5--------------|
G|---------5---7----7-5--------------------------5---7-5-7-7------|
D|-----------7----------7---5-7-5--------------7------------------|
A|------------------------8----------------7-8--------------------|
E|----------------------------------------------------------------|

e|----12--13-12------------------------------------------------12-13----|
B|-15-----------13----15----15-13---------------------------13-------13-|
G|-----------------14-------------14----12-14-12---------14-------------|
D|-----------------------------------15------------14-15----------------|
A|----------------------------------------------------------------------|
E|----------------------------------------------------------------------|

e|-12--13-12---------------------------------------------12------------|
B|-----------13----15--15-13--------------------------13----15-13-15-15|
G|--------------14-----------14----12-14-12--------14------------------|
D|------------------------------15-----------14-15---------------------|
A|---------------------------------------------------------------------|
E|---------------------------------------------------------------------|

e|--17-17---15-13-12---13-15-12---------------------------|
B|--------------------------------13-----------------13---|
G|-------------------------------------14-----------------|
D|------------------------------------------14--15--------|
A|--------------------------------------------------------|
E|--------------------------------------------------------|

e|------------12----13-15-12--------------------------------|
B|------13-15--------------------------------------------13-|
G|15---------------------------14-12-14---------12-14-15----|
D|----------------------------------------13-15-------------|
A|----------------------------------------------------------|
E|----------------------------------------------------------|

e|--17----15-13-12----13-15-17----15-13-12----12----12-13---|
B|-----------------------------------------15----15---------|
G|----------------------------------------------------------|
D|----------------------------------------------------------|
A|----------------------------------------------------------|
E|----------------------------------------------------------|

e|--17----15-13-12----------------------------|
B|-----------------15-14-15---17-----17-------|
G|--------------------------------------------|
D|--------------------------------------------|
A|--------------------------------------------|
E|--------------------------------------------|


Login or Register to remove this ad.