Victory Fanfare (Chrono Trigger) Guitar Tab

Submitted: Jan 15, 2013 by Solid Snake (Last updated: Jan 15, 2013)

0
Download | Listen
Game: Chrono Trigger
Composer(s): Nobuo Uematsu, Yasunori Mitsuda, Noriko Matsueda
Style: Alternate picking, Transcription
Series: Chrono

This song is also called Lucca's Theme, Fanfare I

AutoScroll: Slow | Medium | Fast
Fanfare I (Lucca's Theme)
Chrono Trigger
Yasunori Mitsuda
15/01/2013

E|-2--2-2-0-2-3--3-3-2-3-5--10-10----8--8--8-10------|
B|---------------------------------------------------|
G|---------------------------------------------------|
D|---------------------------------------------------|
A|---------------------------------------------------|
E|---------------------------------------------------|

E|-10---------10--9--9-9-10--------------------------|
B|-------8-10---------------10-----------------------|
G|-----7---------------------------------------------|
D|---------------------------------------------------|
A|---------------------------------------------------|
E|---------------------------------------------------|

E|-10---------10--9-10-12-14-14--14-15-14-12---------|
B|-------8-10----------------------------------------|
G|-----7---------------------------------------------|
D|---------------------------------------------------|
A|---------------------------------------------------|
E|---------------------------------------------------|

E|-10---------10--9--9-9-10--------------------------|
B|-------8-10---------------10-----------------------|
G|-----7---------------------------------------------|
D|---------------------------------------------------|
A|---------------------------------------------------|
E|---------------------------------------------------|

E|-------------------------------8-10----------------|
B|-8--------------8----8-10-8-10---------------------|
G|----7-9-10-9-10---10-------------------------------|
D|---------------------------------------------------|
A|---------------------------------------------------|
E|---------------------------------------------------|
Login or Register to remove this ad.

1 comment on Victory Fanfare

About this tab...

When I do tabs, I try to keep them as neat as possible for maximum accessibility. I'm not hugely musically minded, so I don't think in terms of staffs etc; rather, the sections above are the four recognisable parts in succession, if you see what I mean.