Victory Fanfare (Chrono Trigger) Guitar Tab

Submitted: Dec 31, 2011 by auriplane

5
Average: 5 (2 votes)
Download | Listen
Game: Chrono Trigger
Composer(s): Nobuo Uematsu, Yasunori Mitsuda, Noriko Matsueda
Style: Alternate picking, Transcription
Series: Chrono

This song is also called Fanfare 1, Lucca's Theme

AutoScroll: Slow | Medium | Fast
                   Chrono Trigger - Fanfare 1 GUITAR TAB
                       Composed by Yasunori Mitsuda

                  Tabbed by auriplane ([email protected])



I wrote this out in 12/8 first, and it seemed a little easier to read, but
since the bass is playing straight eighths, it didn't really make sense.  
So I changed it to triplets.

Standard tuning.

        Intro

   |--3--|  |--3--|  |--3--|  |--3--|   |--3--|                    |--3--|
   Q     E  E  E  E  Q     E  E  E  E   Q     E  Q        Q        E  E  E
e |------------------------------------|------------------------------------|
B |------------------------------------|------15-15-------L--------13-13-13-|
G |11----11-11----11-12----12-12-11-12-|14----------------------------------|
D |------------14----------------------|------------------------------------|
A |------------------------------------|------------------------------------|
E |------------------------------------|------------------------------------|

   W
e |------------------------------------|
B |15~---------------------------------|
G |------------------------------------|
D |------------------------------------|
A |------------------------------------|
E |------------------------------------|

        Part A

            |--3--|           |--3--|   |--3--|
   Q        E  E  E  Q        Q     E   Q     E  Q        H
e |------------------------------------|------------------------------------|
B |15----------------15-------14----14-|14----15----------------------------|
G |------------12-14-------------------|---------14-------L-----------------|
D |---------12-------------------------|------------------------------------|
A |------------------------------------|------------------------------------|
E |------------------------------------|------------------------------------|

            |--3--|           |--3--|   |--3--|           |--3--|  |--3--|
   Q        E  E  E  Q        Q     E   Q     E  Q        Q     E  E  E  E
e |------------------------------------|12----14-14-------L-----14-15-14-12-|
B |15----------------15-------14----15-|------------------------------------|
G |------------12-14-------------------|------------------------------------|
D |---------12-------------------------|------------------------------------|
A |------------------------------------|------------------------------------|
E |------------------------------------|------------------------------------|

            |--3--|           |--3--|   |--3--|
   Q        E  E  E  Q        Q     E   Q     E  Q        Q        Q
e |------------------------------------|------------------------------------|
B |15----------------15-------14----14-|14----15----------------------------|
G |------------12-14-------------------|---------14-------L--------12-------|
D |---------12-------------------------|------------------------------------|
A |------------------------------------|------------------------------------|
E |------------------------------------|------------------------------------|

   |--3--|  |--3--|  |--3--|  |--3--|
   E  E  E  E  E  E  E  E  E  E  E  E   W
e |------------------------------------|------------------------------------|
B |---------------------------------13-|15----------------------------------|
G |---------------12----12-14-12-14----|------------------------------------|
D |12-14-15-14-15----15----------------|------------------------------------|
A |------------------------------------|------------------------------------|
E |------------------------------------|------------------------------------|

        Repeat Part A forever.
Login or Register to remove this ad.

3 comments on Victory Fanfare

Amazing

5

Thanks man, this song brought back awesome memories of an even more awesome game. Very good tab

Oh man!

5

I didn't realise this track was recognised as the victory fanfare (just Fanfare I/Lucca's Theme); I didn't even know these tabs were here! You could have just rejected my tab, auriplane...

Oh, I'm sorry! I thought you

Oh, I'm sorry! I thought you saw the other tabs because of your comment about multiple tabs always being a good thing.

I would never reject a tab for a song just because I also made a tab for it. That'd be like saying I thought my tab was better than everyone else's :-)

Anyway, I could rename all the tabs to Fanfare I or Lucca's Theme or whatever. After all, "Fanfare I" is the actual title on the CD. What do you think I should do?