Undersea Palace (Chrono Trigger) Guitar Tab

Submitted: Nov 11, 2010 by BacardiBreezer (Last updated: Apr 30, 2011)

5
Average: 5 (1 vote)
Download | Listen
Game: Chrono Trigger
Composer(s): Nobuo Uematsu, Yasunori Mitsuda, Noriko Matsueda
Style: 2 or more instruments, Alternate picking, Transcription
Series: Chrono

Click here for a video example.

AutoScroll: Slow | Medium | Fast
Ocean Palace
Chrono Trigger
Composer: Yasunori Mitsuda
Tabbed by: Bacardibreezer
2/4/11

Guitar 1

Play this until 50 seconds

e|--------------------------|
B|------18------------------|
G|--------------17-18-17----|
D|--15------15--------------|
A|--------------------------|
E|--------------------------| 

Then play this

e|-----------------------------------------------------------------12---------|
B|-----------15----------------13----------------15---------------------------|
G|--14-12-14----14-12-14-12-14----14-12-14-12-14----14-12-14-12-14----14-12---|
D|----------------------------------------------------------------------------|
A|----------------------------------------------------------------------------|
E|----------------------------------------------------------------------------|

e|-----------------------------11----------------------------------11---------|
B|-----------14----------------------------------14---------------------------|
G|--13-11-13----13-11-13-11-13----13-11-13-11-13----13-11-13-11-13----13-11---|
D|----------------------------------------------------------------------------|
A|----------------------------------------------------------------------------|
E|----------------------------------------------------------------------------|

e|-----------------------------10----------------------------------10---------|
B|-----------13----------------------------------13---------------------------|
G|--12-10-12----12-10-12-10-12----12-10-12-10-12----12-10-12-10-12----12-10---|
D|----------------------------------------------------------------------------|
A|----------------------------------------------------------------------------|
E|----------------------------------------------------------------------------|

And then finish as the trumpets

e|--5-5---6-6---5-5---8--8-7-7-6-6---|
B|--5-5---6-6---5-5---8--8-7-7-6-6---|
G|--7-7---8-8---7-7--10-10-9-9-8-8---|
D|-----------------------------------|
A|-----------------------------------|
E|-----------------------------------| x4

Guitar 2 Begin at :30

e|----------------------------------------------|
B|----------------------------------------------|
G|--17~---15-13-12---8--------8p7p6p5----3~-----|
D|-----------------------10~--------------------|
A|----------------------------------------------|
E|----------------------------------------------|

e|------------------------------15--11-----------------11--13~----|
B|---------------16p15p14p13------------13-----11--13-------------|
G|--17~-----15----------------------------------------------------|
D|----------------------------------------------------------------|
A|----------------------------------------------------------------|
E|----------------------------------------------------------------|

e|----------------------------------------14p13p12p11-------------------13p12p11p10----10---------|
B|--15---13---------------------14--16~----------------------13--15~------------------------12~---|
G|------------15---14~------13---------------------------12---------------------------------------|
D|------------------------------------------------------------------------------------------------|
A|------------------------------------------------------------------------------------------------|
E|------------------------------------------------------------------------------------------------|

e|--------------------------------|
B|------------------13--12--------|
G|--14---15---14------------15----|
D|--------------------------------|
A|--------------------------------|
E|--------------------------------| x4
Login or Register to remove this ad.