Tyrano Lair (Chrono Trigger) Guitar Tab

Submitted: Mar 06, 2011 by BacardiBreezer

4
Average: 4 (1 vote)
Download | Listen
Game: Chrono Trigger
Composer(s): Nobuo Uematsu, Yasunori Mitsuda, Noriko Matsueda
Style: 2 or more instruments, Alternate picking, Transcription
Series: Chrono

AutoScroll: Slow | Medium | Fast
Tyrano Lair
Chrono Trigger
Composer: Yasunori Mitsuda, Nobuo Uematsu, Noriko Matsueda
Tabbed by: Bacardibreezer
3/6/11

Guitar 1

e|-----------------------------|------------------12---14~---|
B|--15---14---15---16---15~----|---15---14---15--------------|
G|-----------------------------|-----------------------------|
D|-----------------------------|-----------------------------|
A|-----------------------------|-----------------------------|
E|-----------------------------|-----------------------------|

e|-----------------------------|-----------------------------|
B|--15---14---15---16---15~----|--------------15--13---------|
G|-----------------------------|-------15-14---------15------|
D|-----------------------------|---13--------------------17~-|
A|-----------------------------|-----------------------------|
E|-----------------------------|-----------------------------|


e|-------------------------|-------------------------|
B|--8---8---8---8-6-8-10---|-11---11---11-9-11-13----|
G|-------------------------|-------------------------|
D|-------------------------|-------------------------|
A|-------------------------|-------------------------|
E|-------------------------|-------------------------|

e|----------------------------|----------------------|
B|--14--14--14---14-13-12-11--|-----L----------------|
G|----------------------------|----------------------|
D|----------------------------|----------------------|
A|----------------------------|----------------------|
E|----------------------------|----------------------|  


e|-------------------------|-------------------------|
B|--8---8---8---8-6-8-10---|-11---11---11-9-11-13----|
G|-------------------------|-------------------------|
D|-------------------------|-------------------------|
A|-------------------------|-------------------------|
E|-------------------------|-------------------------|

e|----------------------------|----------------------|
B|--14--14--14---14-13-12-11--|-----L----------------|
G|----------------------------|----------------------|
D|----------------------------|----------------------|
A|----------------------------|----------------------|
E|----------------------------|----------------------|  

e|---------------------------|-----------------------------------|
B|--2--2-2-2--2-2-2--2-2-2-1-|-1-2-2--2-2-2--2-2-2--2-2-2-3--3---|
G|--4--4-4-4--4-4-4--4-4-4-3-|-3-4-4--4-4-4--4-4-4--4-4-4-5--5---|
D|---------------------------|-----------------------------------|
A|---------------------------|-----------------------------------|
E|---------------------------|-----------------------------------|

e|----------------------------------------|
B|--2--2-2-2--2-2-2--2-2-2-1---0----------|
G|--4--4-4-4--4-4-4--4-4-4-3---2---3~-----|
D|---------------------------------6~-----|
A|----------------------------------------|
E|----------------------------------------|

e|---------------------------|-----------------------------------|
B|--2--2-2-2--2-2-2--2-2-2-1-|-1-2-2--2-2-2--2-2-2--2-2-2-3--3---|
G|--4--4-4-4--4-4-4--4-4-4-3-|-3-4-4--4-4-4--4-4-4--4-4-4-5--5---|
D|---------------------------|-----------------------------------|
A|---------------------------|-----------------------------------|
E|---------------------------|-----------------------------------|

e|----------------------------------------|
B|--2--2-2-2--2-2-2--2-2-2-1---0----------|
G|--4--4-4-4--4-4-4--4-4-4-3---2---3---0--|
D|---------------------------------6---7--|
A|----------------------------------------|
E|----------------------------------------|

e|--16-------12-------15-------12---------16-------12-------17-------12--------|
B|--------14----14----------14----14------------14----14----------14----14-----|
G|-----13----------13----12----------12------13----------13----14----------14--|
D|-----------------------------------------------------------------------------|
A|-----------------------------------------------------------------------------|
E|-----------------------------------------------------------------------------|

e|--16-------12-------15-------12---------16-------12-------18-------12--------|
B|--------14----14----------14----14------------14----14----------14----14-----|
G|-----13----------13----12----------12------13----------13----15----------15--|
D|-----------------------------------------------------------------------------|
A|-----------------------------------------------------------------------------|
E|-----------------------------------------------------------------------------|

e|-----------------------------------------------------------------------------|
B|--12----------------12-----------------12-----------------12-----------------|
G|-----------11----------------11-----------------11-----------------11--------|
D|--------14----14----------14----14-----------14----14-----------14----14-----|
A|-----14----------14----14----------14-----14----------14-----14----------14--|
E|-----------------------------------------------------------------------------|

e|-----------------------------------------------------------------------------|
B|--12----------------12-----------------12-----------------12-----------------|
G|-----------11----------------11-----------------11-----------------11--------|
D|--------13----13----------13----13-----------13----13-----------13----13-----|
A|-----14----------14----14----------14-----14----------14-----14----------14--|
E|-----------------------------------------------------------------------------|

e|--16-------12-------15-------12---------16-------12-------17-------12--------|
B|--------14----14----------14----14------------14----14----------14----14-----|
G|-----13----------13----12----------12------13----------13----14----------14--|
D|-----------------------------------------------------------------------------|
A|-----------------------------------------------------------------------------|
E|-----------------------------------------------------------------------------|

e|--16-------12-------15-------12---------16-------12-------18-------12--------|
B|--------14----14----------14----14------------14----14----------14----14-----|
G|-----13----------13----12----------12------13----------13----15----------15--|
D|-----------------------------------------------------------------------------|
A|-----------------------------------------------------------------------------|
E|-----------------------------------------------------------------------------|

e|-----------------------------------------------------------------------------|
B|--13----------------13-----------------13----------------13------------------|
G|-----------13----------------13-----------------13----------------13---------|
D|--------13----13----------13----13-----------13----13----------13----13------|
A|-----15----------15----15----------15-----15----------15----15----------15---|
E|-----------------------------------------------------------------------------|

e|-----------------------------------------------------------------------------|
B|--13----------------13-----------------13----------------15------------------|
G|-----------11----------------11-----------------13----------------14---------|
D|--------12----12----------12----12-----------13----13----------16----16------|
A|-----15----------15----15----------15-----15----------15----17----------17---|
E|-----------------------------------------------------------------------------|



Guitar 2

e|----------------------------|-----------------------------|
B|----------------------------|-----------------------------|
G|--12------------------12~---|--12-------------------------|
D|-------13---12---16---------|-------13---12---11---12~----|
A|----------------------------|-----------------------------|
E|----------------------------|-----------------------------|

e|----------------------------|-----------------------------|
B|----------------------------|-----------------------------|
G|--12------------------12~---|-------------7---5-----------|
D|-------13---12---16---------|------8--7----------8--------|
A|----------------------------|--6--------------------10~---|
E|----------------------------|-----------------------------|

e|------------------------------|-------------------------------|
B|------------------------------|-------------------------------|
G|------------------------------|-------------------------------|
D|------------------------------|-------------------------------|
A|--5--5-5-5--5-5-5--5-5-5--5-5-|--8--8-8-8--8-8-8--8-8-8--8-8--|
E|--3--3-3-3--3-3-3--3-3-3--3-3-|--6--6-6-6--6-6-6--6-6-6--6-6--|

e|--------------------------------------------|--------------------|
B|--------------------------------------------|--------------------|
G|--------------------------------------------|--------------------|
D|---------------------------------------8~---|---6----------------|
A|--4--4-4-4--4-4-4--4-4-----6--4--8--8-------|-----8-6-4-6--------|
E|--4--4-4-4--4-4-4--4-4--4-------------------|-------------4-5----|

e|------------------------------|-------------------------------|
B|------------------------------|-------------------------------|
G|------------------------------|-------------------------------|
D|------------------------------|-------------------------------|
A|--5--5-5-5--5-5-5--5-5-5--5-5-|--8--8-8-8--8-8-8--8-8-8--8-8--|
E|--3--3-3-3--3-3-3--3-3-3--3-3-|--6--6-6-6--6-6-6--6-6-6--6-6--|

e|--------------------------------------------|--------------------|
B|--------------------------------------------|--------------------|
G|--------------------------------------------|--------------------|
D|---------------------------------------8~---|---6----------------|
A|--4--4-4-4--4-4-4--4-4-----6--4--8--8-------|-----8-6-4-6--------|
E|--4--4-4-4--4-4-4--4-4--4-------------------|-------------4-5----|

e|----------------------------|----------------------------------|
B|----------------------------|----------------------------------|
G|----------------------------|----------------------------------|
D|----------------------------|----------------------------------|
A|----------------------------|----------------------------------|
E|--2--2-2-2--2-2-2--2-2-2-1--|--1-2--2-2-2--2-2-2--2-2-2-3--3---|

e|-----------------------------------|
B|-----------------------------------|
G|-----------------------------------|
D|-----------------------------------|
A|-----------------------------------|
E|--4--4-4-4--4-4-4--4-4-4-3-2-1-----|

e|----------------------------|----------------------------------|
B|----------------------------|----------------------------------|
G|----------------------------|----------------------------------|
D|----------------------------|----------------------------------|
A|----------------------------|----------------------------------|
E|--2--2-2-2--2-2-2--2-2-2-1--|--1-2--2-2-2--2-2-2--2-2-2-3--3---|

e|-----------------------------------|
B|-----------------------------------|
G|-----------------------------------|
D|---------------------------------2-|
A|---------------------------------5-|
E|--4--4-4-4--4-4-4--4-4-4-3-2-1-----|

e|-----------------------------------|-----------------------------------|
B|-----------------------------------|-----------------------------------|
G|-----------------------------------|-----------------------------------|
D|-----------------------------------|-----------------------------------|
A|-----------------------------------|-----------------------------------|
E|-----------------------------------|-----------------------------------|

e|-----------------------------------|-----------------------------------|
B|-----------------------------------|--12~~~----------------------------|
G|-----------------------------------|-----------------------------------|
D|-----------------------------------|-----------------------------------|
A|-----------------------------------|-----------------------------------|
E|-----------------------------------|-----------------------------------|

e|--------------------------------------------|
B|--------------------------------------------|
G|--13---------12----------13---------14------|
D|--------------------------------------------|
A|--------------------------------------------|
E|--------------------------------------------|

e|--------------------------------------------|
B|------------------------------------11------|
G|--13---------12----------13-----------------|
D|--------------------------------------------|
A|--------------------------------------------|
E|--------------------------------------------|

e|--------------------------------------------|
B|--13----------------------L-----------------|
G|--------------------------------------------|
D|--13----------------------L-----------------|
A|--------------------------------------------|
E|--------------------------------------------|

e|--------------------------------------------|
B|--13----------------------L-----------------|
G|--------------------------------------------|
D|--12----------------------L-----------------|
A|--------------------------------------------|
E|--------------------------------------------|


Login or Register to remove this ad.