Ads

To Good Friends (Chrono Trigger) Guitar Tab

Submitted: Oct 27, 2020 by guitarsvd (Last updated: Nov 15, 2020)

0
Download | No audio :(
Game: Chrono Trigger
Composer(s): Nobuo Uematsu, Yasunori Mitsuda, Noriko Matsueda
Style: Arrangement, Artificial harmonics, Fingerstyle, Natural harmonics
Series: Chrono

Click here for a video example.

AutoScroll: Slow | Medium | Fast
Title: To Good Friends
SubTitle: Chrono Trigger
Artist: Cecil Chau (GuitarSVD)
Music: Yasunori Mitsuda
Tempo = 96
Nylon Guitar

Legend
L - tied note
x - dead note
h - hammer on/pull off
b - bend
s - slide
~ - vibrato
g - ghost note
> - accentuated note
t - trill
M - palm mute
. - staccato
P - popping (bass)
S - slapping (bass)
+ - tapping
W - wide vibrato
< - fade in
w - whammy bar
= - tremolo picking
v - brush up
^ - brush down
V - pick stroke up
n - pick stroke down

                                                                          
E |-------|----------------------|--0-----5-------------|--2L------------|
B |-------|--3-----3-------------|----------------------|----------------|
G |--2----|--------------2-------|-----------0----------|----------------|
D |-------|-----------0----------|--------------2-------|-----0-----0----|
A |-------|----------------------|----------------------|--------0-------|
D |-------|----------------------|----------------------|----------------|

                                                                              
--2-----0-------------|----------------------|--0----------------------------|
----------------------|--3-----3-------------|--------------0----------------|
-----------0----------|----------------------|-----------------7-------------|
--------------4--2----|----------------------|-------------------------------|
----------------------|-----------2--4--0----|-----------------------7-------|
----------------------|----------------------|--------------------6----------|

                                                                        
----------------|----------------------|-----------5--5----------------|
----------------|--2-----0-------------|-----------0--2----------------|
--7-------------|--0-------------------|--2----------------------------|
--------0-------|----------------------|-------------------------------|
-----0-----7----|-----------0----------|-----------------------4-------|
----------------|-----------------5----|--------------------4----------|

                                                                     
--5--3--2-------------|--3-----3-------------|--3--2--0-------------|
--4-----4-------------|--5-------------------|--5--3----------------|
-----4----------------|----------------------|----------------------|
--------------1--4----|-----------------2----|----------------------|
-----------2----------|--------------2-------|-----------0-----4----|
----------------------|-----------2----------|----------------------|

                                                                     
--2-----2-------------|--0-----5-------------|----------------------|
----------------------|----------------------|--3-----3-------------|
-----2----------------|-----2----------------|-----2----------------|
-----------0-----0----|----------------------|----------------------|
----------------------|-----------4-----4----|-----------2-----2----|
----------------------|----------------------|----------------------|

                                          ^                                   
--------2-------------|----------------------|-----------------5-------------|
--2-------------------|--0-----0-------------|--------------3----------------|
-----2----------------|-----------------0----|--2----------------------------|
----------------------|--------------0-------|-----------------------0-------|
-----------0-----0----|----------------------|-------------------------------|
----------------------|-----------5----------|--------------------4-----4----|

                                                                                
--5--3--2-------------|--------0-------------|----------------|----------------|
----------------------|--3-------------------|--3L------------|--3-----2-------|
----------------------|--------------3-------|--------2--0----|----------------|
-----------------2----|-----------0----------|-----0----------|-----------4----|
--------------2-------|-----------1-----4----|----------------|-----------5----|
-----------2----------|----------------------|----------------|----------------|

                                                                
-------------------------------|-----------------5-------------|
--0-----------2--3-------------|--------------3----------------|
--------------------------0----|--2----------------------------|
-----------------------0-------|-----------------------0-------|
-------------------------------|-------------------------------|
--------------------5----------|--------------------4-----4----|

                                                         
--5--3--2-------------|----------------------|----------|
----------------------|--3-----5-------------|--3-------|
----------------------|--------------4-------|-----2----|
-----------------2----|-----------2----------|-----2----|
--------------2-------|----------------------|-----1----|
-----------2----------|----------------------|----------|

                                         
-----------5----------------------------|
--3-----------3-----3-------------------|
-----2-----------2-----2-----2----------|
--------0-----------------0-----0-------|
-----------------------------------0----|
----------------------------------------|

                                                                         
----------------------------------------|--0-----5----------------------|
-----------------3----------------------|-----------------------2-------|
--------------2-------------------------|-----------------0--2----------|
--------------------------0h-2--4-------|--------------0----------------|
-----------------------0----------------|-----------0-------------------|
--------------------0-------------------|-------------------------------|

                                                          
--2----------------------|--3--2--0----------------------|
-------------------------|--0----------------------------|
--------------------2----|-------------------------------|
-----------0--2--4-------|-----------------0-----0-------|
--------0----------------|--------------0-----4----------|
-----0-------------------|-----------0-------------------|

                                         
----------------------------------------|
--3-----------2--3----------------------|
--------------------------------2-------|
-----------------------------0----------|
--------------------2-----4-------------|
-----------------------4----------------|

                                         
--0-------------------------------------|
--------------0--3----------------------|
-----------------------------0L-0-------|
--------------------------0-------------|
-----------------------2----------------|
--------------------5-------------------|

                                         
----------------------------------------|
--3-----------0--3----------------------|
--------------------------0h-2L-2-------|
-----------------------2----------------|
--------------------0-------------------|
----------------------------------------|

                 ^
----------------------------------------|
--2-----------0-------------------------|
--0--------------6--------0h-2L-2-------|
-----------------------2----------------|
--------------------0-------------------|
----------------------------------------|


-----------------5----------------------|
----------------------------------------|
----------------------------------------|
--7-----------------------4h-6--7-------|
-----------------------4----------------|
--------------------4-------------------|


--5--------3-----2----------------------|
--------------------------------4-------|
-----------------------5--4-------------|
----------------------------------------|
--------------------2-------------------|
----------------------------------------|


--3L----------3--3----------------------|--3--2--0----------------------|
--------------------------------3-------|-----------------------0h-2----|
----------------------------------------|-----------------0h-2----------|
--------------------------2h-4----------|--------------2----------------|
-----------------------2----------------|-----------0-------------------|
--------------------2-------------------|-------------------------------|


--2L----------2--2----------------------|
----------------------------------------|
----------------------------------------|
--------------------------0h-2--4-------|
-----------------------0----------------|
--------------------0-------------------|


--0L----------0--5----------------------|
----------------------------------------|
----------------------------------------|
--------------------2--------0--2-------|
-----------------------0--4-------------|
----------------------------------------|


-----------------5----------------------|
--3L----------3-------------------------|
----------------------------------------|
--------------------------------0-------|
--------------------2-----2--4----------|
-----------------------4----------------|


----------------------------------------|
----------------------------------------|
--6L----------6--6----------------------|
--------------------------4--6--7-------|
-----------------------4----------------|
--------------------4-------------------|


----------------------------------------|
--3-----------0--3----------------------|
----------------------------------------|
--------------------------------0-------|
--------------------2-----2h-4----------|
-----------------------4----------------|


--0-------------------------------------|
--------------2h-3----------------------|
----------------------------------------|
----------------------------------------|
--------------------------0h-1L-1-------|
--------------------2--5----------------|


--0L----------0-------------------------|
-----------------2----------------------|
--------------------------------3-------|
--------------------------2--4----------|
-----------------------4----------------|
--------------------4-------------------|


-----------------5----------------------|--5--3--2----------------------|
--3--------2--3-------------------------|-------------------------------|
--------------------------4-------------|-----------------------0-------|
-----------------------4----------------|-----------------2--4----------|
--------------------2-------------------|--------------2----------------|
----------------------------------------|-----------2-------------------|


--------0----------------------|--------------3--2----------------------|
--3--------------------0--2----|--3-------------------------------------|
-----------------0--2----------|----------------------------------------|
--------------2----------------|--------------------------0--2L-2-------|
-----------0-------------------|-----------------------0----------------|
-------------------------------|--------------------0-------------------|


-----------10-3--2-------------|-------------------------|----------|
-----7--10---------------------|--3----------------------|--3L------|
--7-----------------------0----|--------2----------------|--2L------|
--------------------0----------|-----0--------0----------|----------|
-------------------------------|-----------0--------0----|----------|
-------------------------------|-----------------4-------|-----0L---|


--------0-------|--2L----------2--5-------------|
--3--3----------|-----------------------3--3----|
--2-------------|-----------------------2--2----|
----------------|-------------------------------|
----------------|-------------------------------|
-----------0----|--------------------0----------|


--3L----------3--2-------------|--0--------------0-------------|
-----------------------0--0----|-----------3-----------2-------|
-----------------------0--0----|-----------------------2--2----|
-------------------------------|-------------------------------|
-------------------------------|--------------------0----------|
--------------------5----------|-------------------------------|


-----------------2-------------|--7L----------7--7-------------|
--3--------2--3----------------|-----------------------0--0----|
-----------------------4--4----|-----------------------0--0----|
-----------------------4--4----|-------------------------------|
--------------------2----------|-------------------------------|
-------------------------------|--------------------5----------|


--5--------------5-------------|--5--3--2-------------|
--------------3--------3-------|--------------0--0----|
-----------------------4--4----|--------------0--0----|
-------------------------------|----------------------|
-------------------------------|----------------------|
--------------------4----------|-----------2----------|


--0--------------0-------------|--2-----5----------------------|
--------------3--2-------------|--------------3--3--3--3-------|
-----------------------2--2----|--------------2--2--2--2-------|
-----------------------2--2----|-------------------------------|
--------------------0----------|-------------------------------|
-------------------------------|-----------0-----------0-------|


--3-----2----------------------|--0--------------0----------------------|
--------------0--0--0--0-------|--2--------3-----------2--2-------------|
--------------0--0--0--0-------|-----------------------3--3--3----------|
--------------0--0--0----------|----------------------------------------|
-------------------------------|----------------------------------------|
-----------5-----------5-------|--------------------4-----------4-------|


----------------------------------------|--9--10-7--------9-------------|
--3--------3--2--3----------------------|-----------------------0--0----|
-----------------------0--------2-------|-----------------------0--0----|
--------------------------4-----2-------|-------------------------------|
--------------------2-----------0-------|-------------------------------|
----------------------------------------|--------------------5----------|


--5--------------5-------------|--5-----3-----2----------|
--------------3--------2-------|-----3-----3-----3-------|
-----------------------2--2----|-----0-----0-----0-------|
-------------------------------|-------------------------|
-------------------------------|-------------------------|
--------------------4----------|--------------------2----|


--------2--3--9--7-------------|--5--------3--2--0-------------|
--4--5--------0----------------|-----------------------2--2----|
--2-----2-----0----------------|-----------------------2--2----|
-------------------------------|-------------------------------|
--------------------0----------|-------------------------------|
--------------------------5----|--------------------4----------|


--------------0--2-------------|--3--------2--0----------------|
--4----------------------------|-----------------3-----0-------|
-----------------------5--4----|-----------------------0--0----|
-----------------------4--4----|-----------------------0--0----|
--------------------2----------|-------------------------------|
-------------------------------|--------------------2----------|


-------------------------------|-------------------------------|
--2-----------0--2-----2-------|--2--------------3-------------|
-----------------------2--2----|--------------2--------2-------|
-------------------------------|-----------------------0--0----|
--------------------0----------|-------------------------------|
-------------------------------|--------------------0----------|


--0L----------------------------------------------0-----------2--3--------------
--------------------------------------------------------------------------------
--------------------------------------------------------------------------------
-----------------------------------------------------------------------------0--
--------------------------------------------------------------------------------
--------------------------------------------------------------------------------


--------|--2L----------2----------------|--0L----------0--2-------------|
2--2----|-----------------3-----3--3----|-------------------------------|
3--3----|-----------------------2--2----|-----------------------2--2----|
--------|--------------------0----------|-----------------------2--2----|
--------|-------------------------------|--------------------4----------|
--------|-------------------------------|-------------------------------|


-------------------------------|--0L----------0--2-------------|
--3--------------3-------------|-----------------------2--2----|
--------------2----------------|-----------------------0--0----|
--------------------------0----|-------------------------------|
--------------------2--4-------|--------------------1----------|
-------------------------------|-------------------------------|


--------------2--5-------------|--10------------|-----------------0-------|
--3--------3-------------------|-----0--7--7----|--5-----------3L-3L------|
-----------------------2--2----|-----7--7--7----|--------------------7----|
-----------------------0--0----|----------------|--------------------0----|
--------------------0----------|----------------|-------------------------|
-------------------------------|-----6----------|--------------------6----|


--2L----------2--3--------------------------------------------------------------
--3L----------3L-3L-------------------------------3-----------------------3-----
--------------------------------------------------------------4-----------------
--------------------------------------------------------------------------------
--------------------2-----------------------------------------------------------
--------------------------------------------------------------------------------


--------------------------------------------------------------------------------
--------------------------------------------------------------------------------
------4-----------------------4-------------------------------------------------
------------------4--------------------------4----------------------------------
------------------------------------------------------------2-------------------
--------------------------------------------------------------------------------


------------------------------------------|--0----------------------------|
------------------------------------------|--3L----------3--3-----2--2----|
------------------------------------------|-----------------------3--3----|
------------------------------------------|-----------------------2--2----|
------------------------------------------|--------------------0----------|
------------------------------------------|-------------------------------|


--0--------2--3--5-------------|--------------0--2-------------|
--------------------2--2--2----|--4----------------------------|
--------------------3--3--3----|-----------------------5--4----|
-------------------------------|-----------------------4--4----|
-------------------------------|--------------------2----------|
--------------------4----------|-------------------------------|


--3--------------0-------------|--2--------------------------------12L-----|
-----------0--3-----0--0-------|-----------------------0-------------------|
--------------------0--0--0----|--------------------0-----------9----------|
-------------------------------|-----------------2--------10-11------------|
-------------------------------|--------------0-----------------------0L---|
--------------------2----------|-------------------------------------------|


--12---------------------|--------5-----------5----------------------------|
-----------0--1--2-------|-----7-----7-----7-----7-------------------------|
-------------------------|--9-----------9-----------7----------------------|
-------------------------|-----------------------------------------0-------|
--------------------0----|-------------------------------------------------|
-------------------------|--------------------------------------0----------|


--------6-----------6----------------------------|
-----8-----8-----8-----8-------------------------|
--9-----------9-----------7----------------------|
-----------------------------------------0-------|
-------------------------------------------------|
--------------------------------------0----------|


--------5--6--------9--10-9--10-12---------------|
-----8--------10-11----------------10------------|
--7--------------------------------------12------|
-----------------------------------------0-------|
-------------------------------------------------|
--------------------------------------0----------|


--12----12----12----12----12L--------------------|
-----15----15----15----15------------------------|
--------------------------------------------0----|
-----------------------------------------0-------|
-------------------------------------------------|
--------------------------------------0----------|


--12----5L---------------------------------------|--5--------------0----|
--------------------------3--5L----5-------------|--------------3-------|
--------------------0--2-------------------------|-----------2----------|
-----------------4-------------------------------|----------------------|
--------------0----------------------------------|----------------------|
-----------0-------------------------------------|----------------------|


--2-----5-------------|--3-----2-------------|--0-----0----------------------|
-----------------3----|--------------2-------|-----3-------------------------|
--------------2-------|-----------0----------|-------------------------------|
-----------4----------|----------------------|-----------0-----------0-------|
----------------------|----------------------|--------------------------0----|
----------------------|----------------------|-------------------------------|


-----------------2-------------|--7-----7-------------|
--3--------2--3----------------|--------------0--0----|
-----------------------2--2----|-----------0--0-------|
-----------------------0--0----|----------------------|
-------------------------------|----------------------|
--------------------0----------|--------------5-------|


--5--------------5-------------|--5--3--2-------------|
-------------------------------|----------------------|
--------------7----------------|-----------------2----|
--------------------4-----4----|-----------2----------|
-------------------------------|----------------------|
-----------------------4-------|--------------2-------|


--0--------0--2--3-------------|--5-----------5--7-------------|
-----------2--0-----2----------|-----------------------5--5----|
-----------2-----0--2----------|-----------------------5--5----|
-------------------------------|-------------------------------|
-----------------------0-------|-------------------------------|
--------------------------5----|--------------------4----------|


--8--7----------------|--3-----------3--5-------------|--6--5--3-------------|
--------10-0----------|-----------------------0--0----|-----------------2----|
-----------8--8--8----|-----------------------0--0----|--------------2--2----|
--------------10------|-------------------------------|--------------2-------|
----------------------|-------------------------------|-----------0----------|
-----------9----------|--------------------2----------|----------------------|


--2-----2-------------|--0-----5-------------|----------------------|
--------------3--3----|--------------2-------|--3-----3-------------|
--------------2-------|--------------2-------|-----------4--4-------|
-----------0----------|----------------------|--------------4-------|
----------------------|-----------4----------|-----------2----------|
----------------------|----------------------|----------------------|


--------2-------------|----------------------|-----------------5-------------|
--2-------------------|--0-------------------|-----------2--3----------------|
-----------2--2-------|--------3--0--0-------|--2--------------------2-------|
-----------2--2-------|--------------0--0----|-----------------------2-------|
-----------0----------|----------------------|--------------------------2----|
----------------------|-----------5----------|--------------------4----------|


--5--3--2-------------|----------------------|----------|
--------------0--0----|--3-----5-------------|--3-------|
--------------0--0----|-----------3--3--3----|-----3----|
----------------------|-----------0--0-------|-----0----|
----------------------|----------------------|-----1----|
-----------2----------|-----------5----------|----------|


-----------3--5--6--6L----6----------------|--10L-----|--10------||
--------3----------------------------------|-----7L---|-----7----||
--2--3-------------------------------------|-----7L---|-----7----||
--------------------------------------0----|----------|----------||
-------------------------------------------|----------|----------||
-------------------------------------------|-----0L---|-----0----||

Login or Register to remove this ad.