A Strange Happening (Chrono Trigger) Guitar Tab

Submitted: Aug 21, 2013 by Colin_spade

5
Average: 5 (4 votes)
Download | Listen
Game: Chrono Trigger
Composer(s): Nobuo Uematsu, Yasunori Mitsuda, Noriko Matsueda
Style: Arrangement, Fingerstyle
Series: Chrono

AutoScroll: Slow | Medium | Fast
A Strange Happening                               


                                                                Yasunori Mitsuda
Track 1



     E.  S      S S S S S S S S S S S S S S S S  
E||--------||---5---0-------0-------0---5---0---|
B||------3-||-----6---6---6---6---6---6---6---3-|
G||--------||*----------------------------------|
D||--------||*--0-------0-------0-------0-----3-|
A||--------||-------------------------------0---|
D||--------||-----------------------------------|


  S S S S S S S S S S S S S S S S  4x  Q    E  E  Q    E  E   
--4---0-------0-------0---4---0----||----------4-------4--1--|
----6---6---6---6---6---6---6---3--||-------6--4-------4--1--|
----------------------------------*||-------5----------------|
--------------------------------3-*||------------------------|
-----------------------------------||-------------1----------|
--6-------6-------6-------6--------||--0---------------------|


  Q    E  E  Q    E  E     Q    E  E  Q    E  E     Q    E  E  Q    E  E   
-------3--2-------2--1--|----------4-------4--3--|-------3--2-------2--1--|
-------3--2-------2--1--|-------6--4-------4--3--|-------3--2-------2--1--|
------------------------|-------5----------------|------------------------|
------------------------|------------------------|------------------------|
--0---------------------|-------------1----------|--0---------------------|
-------------1----------|--0---------------------|-------------1----------|


  H.           E  E     
----------------------||
------------------3---||
---------------------*||
---------------------*||
----------------------||
--0-------------------||




Duration Legend
---------------
W - whole
H - half
Q - quarter
E - 8th
S - 16th
T - 32nd
X - 64th
. - note dotted
|-n-|  - n-tuplets


Tablature Legend
----------------
L - tied note
x - dead note
g - grace note
(n) - ghost note
> - accentuded note
NH - natural harmonic
AH - artificial harmonic
TH - tapped harmonic
SH - semi harmonic
PH - pitch harmonic
h - hammer on
p - pull off
b - bend
br - bendRelease
pb - preBend
pbr - preBendRelease
brb - bendReleaseBend
\n/ - tremolo bar dip
\n - tremolo bar dive
-/n - tremolo bar Release up
/n\ - tremolo bar inverted dip
/n - tremolo bar return
-\n - tremolo bar Release down
S - shift slide
s - legato slide
/ -  slide into from below or out of upwards
\ -  slide into from above or out of downwards
~ - vibrato
W - wide vibrato
tr - trill
TP - tremolo picking
T - tapping
S - slap
P - pop
< - fade in
^ - brush up
v - brush down
Login or Register to remove this ad.