Sealed Door (Chrono Trigger) Guitar Tab

Submitted: Mar 13, 2011 by BacardiBreezer

0
Download | Listen
Game: Chrono Trigger
Composer(s): Nobuo Uematsu, Yasunori Mitsuda, Noriko Matsueda
Style: 2 or more instruments, Transcription
Series: Chrono

AutoScroll: Slow | Medium | Fast
Sealed Door
Chrono Trigger
Composer: Yasunori Mitsuda, Nobuo Uematsu, Noriko Matsueda
Tabbed by Bacardibreezer
3/12/11

Guitar 1 - Rhythm

e|---------10-11-----------10-11----|---------8-10-------------8-10----|
B|-----8-9-------------8-9----------|-----8-9--------------8-9---------|
G|----------------------------------|----------------------------------|
D|--10--------------10--------------|--12---------------10-------------|
A|----------------------------------|----------------------------------|
E|----------------------------------|----------------------------------|

e|---------10-11-----------10-11----|---------10-11------------10-11---|
B|-----8-9-------------8-9----------|-----8-9--------------8-9---------|
G|----------------------------------|----------------------------------|
D|--10--------------10--------------|--10---------------10-------------|
A|----------------------------------|----------------------------------|
E|----------------------------------|----------------------------------|

e|---------10-11-----------10-11----|---------8-10-------------8-10----|
B|-----8-9-------------8-9----------|-----8-9--------------8-9---------|
G|----------------------------------|----------------------------------|
D|--10--------------10--------------|--12---------------10-------------|
A|----------------------------------|----------------------------------|
E|----------------------------------|----------------------------------|

e|-----------10-13-----------10-13--|--------------11---------------11-|
B|-----10-11-----------10-11--------|--------11-13------------11-13----|
G|----------------------------------|-----13---------------13----------|
D|--12------------------------------|--13---------------13-------------|
A|-------------------13-------------|----------------------------------|
E|----------------------------------|----------------------------------|

e|---------10-11-----------10-11----|---------10-11-------------10-11--|
B|-----8-9-------------8-9----------|-----8-9--------------8-9---------|
G|----------------------------------|----------------------------------|
D|--10--------------10--------------|--10---------------10-------------|
A|----------------------------------|----------------------------------|
E|----------------------------------|----------------------------------|

e|---------10-11-----------10-11----|---------8-10-------------8-10----|
B|-----8-9-------------8-9----------|-----8-9--------------8-9---------|
G|----------------------------------|----------------------------------|
D|--10--------------10--------------|--10---------------10-------------|
A|----------------------------------|----------------------------------|
E|----------------------------------|----------------------------------|

e|--------------13---------------13-|--------------13---------------13-|
B|-----11-13-14---------11-13-14----|-----11-13-14---------11-13-14----|
G|--10---------------10-------------|--10---------------10-------------|
D|----------------------------------|----------------------------------|
A|----------------------------------|----------------------------------|
E|----------------------------------|----------------------------------|

e|--------------16---------------16-|--------------16---------------16-|
B|-----14-16-17---------14-16-17----|-----14-16-17---------14-16-17----|
G|--13---------------13-------------|--13---------------13-------------|
D|----------------------------------|----------------------------------|
A|----------------------------------|----------------------------------|
E|----------------------------------|----------------------------------|

e|-----------------11----------------11-|--------------11-13-------------11-13-|
B|--------------13----------------13----|-----------12----------------12-------|
G|--------12-13-------------12-13-------|--------13----------------13----------|
D|--------------------------------------|-----13----------------13-------------|
A|-----15----------------15-------------|--11----------------11----------------|
E|--13----------------13----------------|--------------------------------------|

e|--------------14-17-------------14-17-|-----------------14----------------14-|
B|--------14-15-------------14-15-------|--------------14----------------14----|
G|-----11----------------11-------------|--------13-14-------------13-14-------|
D|--12----------------12----------------|-----14----------------14-------------|
A|--------------------------------------|--12----------------12----------------|
E|--------------------------------------|--------------------------------------|

e|-----------------11----------------11-|-----------------11----------------11-|
B|--------------13----------------13----|--------------13----------------13----|
G|--------12-13-------------12-13-------|--------12-13-------------12-13-------|
D|--------------------------------------|--------------------------------------|
A|-----15----------------15-------------|-----15----------------15-------------|
E|--13----------------13----------------|--13----------------13----------------|


Guitar 1 - Piano

e|------------|---------------|---------------|
B|--------16~-|----------15~--|---------16~---|
G|--12-13-----|---12-13-------|--12-13--------|
D|------------|---------------|---------------|
A|------------|---------------|---------------|
E|------------|---------------|---------------|

e|------------|---------------|--------13-----|-----------|--------|------|
B|--------16~-|---------15~---|---------------|-------16--|---15~--|--13~-|
G|--12-13-----|--12-13--------|--12-13--------|-12-13-----|--------|------|
D|------------|---------------|---------------|-----------|--------|------|
A|------------|---------------|---------------|-----------|--------|------|
E|------------|---------------|---------------|-----------|--------|------|

e|-------------------------------------|-------------------------------------|
B|-----------------13--11-----11-------|-------------------16--14-----14-----|
G|--10-12-13-12-10--------13-----10----|----13-15-16-15-13--------16-----13--|
D|-------------------------------------|-------------------------------------|
A|-------------------------------------|-------------------------------------|
E|-------------------------------------|-------------------------------------|

e|--------------|----------------|----------------|----------------|----------|
B|----------13--|----------------|---12--14--15---|-----------14---|---13-----|
G|--13--15------|---13--15--16---|----------------|---14--16-------|----------|
D|--------------|----------------|----------------|----------------|----------|
A|--------------|----------------|----------------|----------------|----------|
E|--------------|----------------|----------------|----------------|----------|

Guitar 3 - Strings

e|-----|--11---|---13---|--11---|----L----|
B|-----|--13---|---13---|--13---|----L----|
G|-----|-------|--------|-------|---------|
D|-----|-------|--------|-------|---------|
A|-----|-------|--------|-------|---------|
E|-----|-------|--------|-------|---------|

e|--15---|---13---|---10---|---11---|--10---|--11---|--------|--------|
B|--16---|---13---|---11---|---13---|-------|--13---|---15---|--13----|
G|-------|--------|--------|--------|--12---|-------|---15---|--12----|
D|-------|--------|--------|--------|-------|-------|--------|--------|
A|-------|--------|--------|--------|-------|-------|--------|--------|
E|-------|--------|--------|--------|-------|-------|--------|--------|

e|--------------|--------------|--------------|--------------|
B|--------------|--------------|--------------|--------------|
G|----6---6-----|----6---6-----|----6---6-----|-----6--6-----|
D|--8---8---8---|--8---8---8---|--8---8---8---|---8------8---|
A|--------------|--------------|--------------|--------------|
E|--------------|--------------|--------------|--------------|

e|----------------|----------------|----------------|-------------|
B|----------------|----------------|----------------|-------------|
G|-----6----6-----|-----6-----6----|-----6----6-----|----6--6-----|
D|--6-----6----6--|--6-----6-----6-|--6-----6----6--|--6------6---|
A|----------------|----------------|----------------|-------------|
E|----------------|----------------|----------------|-------------|

e|--16---|---16---|--10---|---12---|--13---|---L---|---L---|---L--|
B|--18---|---16---|--12---|---14---|--13---|---L---|---L---|---L--|
G|-------|--------|-------|--------|-------|-------|-------|------|
D|-------|--------|-------|--------|-------|-------|-------|------|
A|-------|--------|-------|--------|-------|-------|-------|------|
E|-------|--------|-------|--------|-------|-------|-------|------|
Login or Register to remove this ad.