Robo's Theme (Chrono Trigger) Guitar Tab

Submitted: Mar 22, 2015 by JordanVS

5
Average: 5 (6 votes)
Download | Listen
Game: Chrono Trigger
Composer(s): Nobuo Uematsu, Yasunori Mitsuda, Noriko Matsueda
Style: Arrangement, Fingerstyle
Series: Chrono

AutoScroll: Slow | Medium | Fast
Robo's Theme                                                       
Chrono Trigger
Yasunori Mitsuda
JordanVS 

*Capo on the 2nd fret
*Tempo = 116


     E.  S E  E  Q    E  E     E.  S E  E  Q    Q       E.  S E  E  Q    E  S S    Q    Q    Q    Q     
E||-------------------------|-----------0--0---------|--------------------------|----------------------|
B||--1---1-L--3--3-------3--|--3---3-L--1--1----3----|--1---1-L--3--3----1--0---|----------------------|
G||--2---2-L--4--4-------4--|--4---4-L--2-------4----|--2---2-L--4--4---------0-|--L-------------------|
D||--3--------5-------------|------------------------|--3--------5------------2-|--L-------------------|
A||-------------------------|--0-----0-----0---------|--------------------------|--3----3----3----3----|
E||--1-----1-----3----3-----|-------------------3----|--1-----1-----3----3------|----------------------|


  E.  S E  E  Q    E  E     E.  S E  E  Q    Q       E.  S E  E  Q    Q       Q    Q    Q    E  E   
-------------------------|-----------0--0---------|------------------------|-----------------------|
--1---1-L--3--3-------3--|--3---3-L--1--1----3----|--1---1-L--3--3---------|--------------------1--|
--2---2-L--4--4-------4--|--4---4-L--2-------4----|--2---2-L--4--4----0----|--2--------------------|
--3--------5-------------|------------------------|--3--------5------------|--2--------------------|
-------------------------|--0-----0-----0---------|------------------------|--0----0----0----0-----|
--1-----1-----3----3-----|-------------------3----|--1-----1-----3----3----|-----------------------|


  ^           ^             ^           ^              ^           ^             ^         ^            
  E.  S E  E  Q    E  E     E.  S E  E  Q    E  S S    E.  S E  E  Q    E  E     Q    Q    Q    E  S S  
--0---0-L--1--3-------3--|--3---1-L--0--------------|--0---0-L--1--3----------|------------------------|
--1-----------0----------|--1-----------3---------3-|--1-----------0----------|--1---------0-------1-3-|
--0-----------0----------|--2-----------4-------5---|--0-----------0-------0--|--2---------0-----------|
--------------2----2-----|--3-----3-----5----5------|--------------2----2-----|--3---------0-----------|
--3-----3----------------|--------------------------|--3-----3----------------|------------------------|
-------------------------|--------------------------|-------------------------|--1----1----3----3------|


  ^           ^             ^           ^                                                          *Da Capo
  E.  S E  E  Q    E  E     E.  S E  E  E.  S E  E     Q    Q    Q    Q       Q    Q    Q    Q     
--0---0-L--1--3-------3--|--3---5----3--3-----------|----------------------|----------------------|
--1-----------0----------|--1-----------3---6----5--|--5---------3---------|--2-------------------|
--2-----------0----------|--2-----------4-----------|--5---------2---------|--2-------------------|
--------------2----2-----|--3-----3-----5-----5-----|----------------------|----------------------|
--0-----0----------------|--------------------------|--0----0----0----0----|--0----0----0----0----|
-------------------------|--------------------------|----------------------|----------------------|


  E  E  E  E  E  E  E  E     E  E  E  E  E  E  E  E     E  E  E  E  E  E  E  E     E  E  E  E  E  E  E  E   
--------------------------|--------------0-----------|--------------------------|--------------0-----------|
--1-----------3-----------|--3-----------------3-----|--1-----------3-----1--0--|-----------1-----1--------|
--2-----------4-----------|--------2-----------------|--2-----------------0-----|--0-----0-----------0-----|
--------3-----------5-----|-----2-----2-----2-----0--|--------3--------0-----0--|-----2-----------------2--|
-----3-----3-----5-----5--|--0-----------0-----------|-----3-----3--------------|--3-----------------------|
--1-----------3-----------|--------------------3-----|--1-----------3-----------|--------------------------|


                                                                                   ^                  
  E  E  E  E  E  E  E  E     E  E  E  E  E  E  E  E     E  E  E  E  E  E  E  E     W                  
--------------------------|--------------0-----------|--------------------------|-------------------||
--1-----------3-----------|--3-----------------3-----|--1-----------3-----------|-------------------||
--2-----------4-----------|--------2-----------------|--2-----------4-----------|--2----------------||
--------3-----------5-----|-----2-----2-----2-----0--|--------3-----------5-----|--2----------------||
-----3-----3-----5-----5--|--0-----------0-----------|-----3-----3-----5-----5--|--0----------------||
--1-----------3-----------|--------------------3-----|--1-----------3-----------|-------------------||




Duration Legend
---------------
W - whole
H - half
Q - quarter
E - 8th
S - 16th
T - 32nd
X - 64th
. - note dotted
|-n-|  - n-tuplets


Tablature Legend
----------------
L - tied note
^ - brush up
v - brush down
Login or Register to remove this ad.

2 comments on Robo's Theme

Very nice and super playable!

5

Very nice and super playable!

Wow another beautiful

5

Wow another beautiful arrangement .. so fun tab to play ^^ Thanks JordanVS