Ads

Robo Gang Johnny (Chrono Trigger) Guitar Tab

Submitted: Aug 22, 2012 by The Ripper

5
Average: 5 (4 votes)
Download | Listen
Game: Chrono Trigger
Composer(s): Nobuo Uematsu, Yasunori Mitsuda, Noriko Matsueda
Style: Arrangement, Fingerstyle
Series: Chrono

AutoScroll: Slow | Medium | Fast
                                       Chrono Trigger
                                      Robo Gang Johnny
                 Composed By Yasunori Mitsuda,Nobuo Uematsu and Noriko Matsueda.
                           Tabbed By The Ripper August 20th 2012.

     Q    E  E  Q    E  E     Q    E  E  E  E  E  E     Q    E  E  Q    E  E   
E||-------------------------|-------------------------|------------------------|
B||--------3----------3-----|-------3-----3-----3-----|-------3----------3-----|
G||*-------2----------2-----|-------2-----3--4--3--4--|-------2----------2-----|
D||*--2-------2-------------|--2-------2--------------|--2-------2-------------|
A||--------------2-------2--|-------------------------|-------------2-------2--|
E||-------------------------|-------------------------|------------------------|


  Q    Q     H           Q    E  E  Q    E  E     E  E  E  E  E  E  E  E   
------------12--------|-------3-----0----------|-----------------0--3--0--|
--3----L----12--------|---------------------2--|--3--2--3--2--3-----------|
--2----L--------------|------------------------|--------------3--4--3--4--|
--2----L--------------|--2-------2-------------|--2-----L--2--------------|
----------------------|-------------2-------2--|--------------------------|
----------------------|------------------------|--------------------------|


  Q    E  E  Q    E  E     E  E  E  E  E  E  E  E     Q    E  E  Q    E  E   
-------3-----0----------|--------------------------|-------3--L--0----------|
------------------2--3--|-----0--------------------|---------------------2--|
------------------------|--------------3--4--3--4--|------------------------|
--2-------2-------------|--2--------2--------------|--2-------2-------------|
-------------2-------2--|--------------------------|-------------2-------2--|
------------------------|--------------------------|------------------------|


  E  E  E  E  E  E  E  E     Q    E  E  Q    E  E     E  E  E  E  E  E  E  E   
-----------------0--3--0--|-------3--L--0----------|--------------------------|
--3--2--3--2--3-----------|------------------2--3--|-----0--------------------|
--------------3--4--3--4--|------------------------|--------------3--4--3--4--|
--2--------2--------------|--2-------2-------------|--2--L-----2--------------|
--------------------------|-------------2-------2--|--------------------------|
--------------------------|------------------------|--------------------------|


  E  E  E  E  E  E  E  E     E  E  E  E  E  E  E  E   
-----0--L-----0--3-----5--|-----5--3--5--7--5--3--4--|
-----------3--------------|--------------------------|
--2--L-----2--------------|--4--L-----4--------------|
--------------2-----------|--------------4--L-----4--|
-----------------------7--|--------------------------|
--------------------------|--------------------------|


  E  E  E  E  E  E  E  E     Q    Q    E  E  E  S S    E  E  E  E  E  E  E  E   
--0--0--3--5--6--7--3--0--|-------------------------|-----0--L-----0--3-----5--|
--------------------------|--3----4-------0--L------|-----------3--------------|
--------0--2--3--4--0-----|---------------------2-0-|--2--L-----2--------------|
-----2-----------------2--|--0----1----2------------|--------------2--------2--|
--------------------------|-------------------------|--------------------------|
--------------------------|-------------------------|--------------------------|


  E  E  E  E  E  E  E  E     E  E  E  E  E  E  E  E     E  E  E  E  H           
-----5--3--5--7--5--3--5--|--0--0--3--5--6--7--3--0--|--------------L---------||
--------------------------|--------------------------|------------------------||
--4-----L--4--------------|--------0--2--3--4--0-----|-----4--2--3--4--------*||
--------------4-----L--4--|-----2-----------------2--|-----------------------*||
--------------------------|--------------------------|------------------------||
--------------------------|--------------------------|------------------------||




Duration Legend
---------------
W - whole
H - half
Q - quarter
E - 8th
S - 16th


Tablature Legend
----------------
L - tied note
Login or Register to remove this ad.

1 comment on Robo Gang Johnny

Fun =)

5

Fun =)