Presentiment (Chrono Trigger) Bass/Guitar Tab

Submitted: May 29, 2010 by Boheeka (Last updated: Dec 04, 2010)

0
Download | Listen
Game: Chrono Trigger
Composer(s): Nobuo Uematsu, Yasunori Mitsuda, Noriko Matsueda
Style: 2 or more instruments, Alternate picking, Arrangement
Series: Chrono

AutoScroll: Slow | Medium | Fast
"Introduction"
Chrono Trigger
Composed by Nobuo Uematsu, Yasunori Mitsuda
Transcribed from The Chrono Trigger Piano Book, tabbed/arranged by Boheeka

Track 1: Guitar

E|------------------------------------------|-------------------------------------------------|
B|------------------15----------------------|-15----------------------15----------------------|
G|----------12--14------14--12------12--14--|-----14--12------12--14------14--12------12--14--|
D|------12----------------------12----------|-------------12----------------------12----------|
A|------------------------------------------|-------------------------------------------------|
E|-0----------------------------------------|-------------------------------------------------|


E|-------------------------------------------------|------------------------------------------------
B|-15----------------------15----------------------|-15----------------------15---------------------
G|-----14--12------12--14------14--12------12--14--|-----14--12------12--14------14--12------12--14-
D|-------------12----------------------12----------|-------------12----------------------12---------
A|-------------------------------------------------|------------------------------------------------
E|-------------------------------------------------|------------------------------------------------


E|--------|-0------|--------|--------|--------|
B|--------|-0------|--------|--------|--------|
G|--------|-2------|-2------|-0------|--------|
D|-12-----|--------|-2------|-0------|--------|
A|-12-----|--------|-5------|-0------|--------|
E|-15-----|--------|--------|--------|--------|





Track 2: Bass

G|-------------|--------|--------|------------------------|--------|--------|--------|
D|-------------|--------|--------|------------------------|-0------|-4------|-3------|
A|-------------|--------|--------|------------------------|--------|--------|--------|
D|-------------|--------|--------|-0-----0----0---0---0---|--------|--------|--------|


G|--------|--------|
D|-3------|-3------|
A|--------|--------|
D|--------|--------|





Track 3: Guitar

E|--------|--------|--------|--------|-------------------------------------------------|
B|--------|--------|--------|--------|-15----------------------15----------------------|
G|--------|--------|--------|--------|-----14--12------12--14------14--12------12--14--|
D|--------|--------|--------|--------|-------------12----------------------12----------|
A|--------|--------|--------|--------|-------------------------------------------------|
E|--------|--------|--------|--------|-------------------------------------------------|


E|-------------------------------------------------|------------------------------------------------
B|-15----------------------15----------------------|-15----------------------15---------------------
G|-----14--12------12--14------14--12------12--14--|-----14--12------12--14------14--12------12--14-
D|-------------12----------------------12----------|-------------12----------------------12---------
A|-------------------------------------------------|------------------------------------------------
E|-------------------------------------------------|------------------------------------------------


E|-------------------------------------------------|------------------------------------------------
B|-15----------------------15----------------------|-15----------------------15---------------------
G|-----14--12------12--14------14--12------12--14--|-----14--12------12--14------14--12------12--14-
D|-------------12----------------------12----------|-------------12----------------------12---------
A|-------------------------------------------------|------------------------------------------------
E|-------------------------------------------------|------------------------------------------------



Login or Register to remove this ad.