Prayer to the Road that Leads (Chrono Trigger) Bass/Guitar Tab

Submitted: Feb 06, 2011 by xuwawa

5
Average: 5 (2 votes)
Download | Listen
Game: Chrono Trigger
Composer(s): Nobuo Uematsu, Yasunori Mitsuda, Noriko Matsueda
Style: Alternate picking, Arrangement
Series: Chrono

AutoScroll: Slow | Medium | Fast
Prayer II: The Road that Leads

An arrangement of Chrono Trigger's "Prayer to the road that leads"
by XVWAWA, aka Randall Scott Stephens, for Gametabs.com 

D# minor, 4/4 time, 100 bpm [my preferred] or 84 bpm [original] 

For Keys on Guitar and the Guitar part, either capo at 6th fret and play as written
or capo 1st fret and play the low A# in the 3rd chord on the A string.
Still written relative to standard tuning.

Chords: D#m7, C#add9/F, A#m7add9


Keys [Original]

E|-6-------------------|-9-------------------|-8-------------------|---------------------|
B|-7-------------------|-9-------------------|-9-------------------|---------------------|
G|-6-------------------|-8-------------------|-10------------------|---------------------|
D|---------------------|---------------------|-11------------------|---------------------|
A|-6-------------------|-8-------------------|---------------------|---------------------|
E|---------------------|---------------------|-6-------------------|---------------------|

E|-6-------------------|-9-------------------|-8-------------------|------------------8--|
B|-7-------------------|-9-------------------|-9-------------------|------------------9--|
G|-6-------------------|-8-------------------|-10------------------|------------------10-|
D|---------------------|---------------------|-11------------------|------------------11-|
A|-6-------------------|-8-------------------|---------------------|---------------------|
E|---------------------|---------------------|-6-------------------|------------------6--|

E|-6-------------------|-9-------------------|-8-------------------|----------------8----|
B|-7-------------------|-9-------------------|-9-------------------|----------------9----|
G|-6-------------------|-8-------------------|-10------------------|----------------10---|
D|---------------------|---------------------|-11------------------|----------------11---|
A|-6-------------------|-8-------------------|---------------------|---------------------|
E|---------------------|---------------------|-6-------------------|----------------6----|

E|-6-------------------|-9-------------------|-8-------------------|---------------------|
B|-7-------------------|-9-------------------|-9-------------------|---------------------|
G|-6-------------------|-8-------------------|-10------------------|---------------------|
D|---------------------|---------------------|-11------------------|---------------------|
A|-6-------------------|-8-------------------|---------------------|---------------------|
E|---------------------|---------------------|-6-------------------|---------------------|

E|-6-------------------|-9-------------------|-8-------------------|---------------------|
B|-7-------------------|-9-------------------|-9-------------------|---------------------|
G|-6-------------------|-8-------------------|-10------------------|---------------------|
D|---------------------|---------------------|-11------------------|---------------------|
A|-6-------------------|-8-------------------|---------------------|---------------------|
E|---------------------|---------------------|-6-------------------|---------------------|


Guitar

E|-----**********------|-----***********-----|------*********------|-----***********-----|
B|------*--------*-----|------*--------------|-----*---------------|-----*----*----*-----|
G|------*--------*-----|------*********------|------*********------|----------*----------|
D|------*********------|------*--------------|---------------*-----|----------*----------|
A|------*--------*-----|------*--------------|---------------*-----|----------*----------|
E|------*---------*----|-----***********-----|------*********------|---------***---------|

E|---------------------------------6-------------------------------|-------------------------------------------------9---------------|
B|-------------------------7---------------7-----------------------|---------------------------------9-------------------------------|
G|-----------------6-------------------------------6---------------|-----------------8-----------------------------------------------|
D|-----------------------------------------------------------------|-----------------------------------------------------------------|
A|-6-------------------------------------------------------6-------|-8-----------------------8---------------8---------------8-------|
E|-----------------------------------------------------------------|-----------------------------------------------------------------|

E|---------------------------------8-------------------------------|-8---------------------------------------------------------------|
B|-------------------------9---------------9-----------------------|-----------------9-----------------------------------------------|
G|-----------------10------------------------------10--------------|---------------------------------10------------------------------|
D|---------11----------------------------------------------11------|-------------------------------------------------11--------------|
A|-----------------------------------------------------------------|-----------------------------------------------------------------|
E|-6---------------------------------------------------------------|---------6---------------6---------------6---------------6-------|

E|-------------------------------------------------6---------------|-------------------------------------------------9---------------|
B|-----------------7-----------------------7-----------------------|-----------------9-----------------------9-----------------------|
G|---------6-----------------------6-------------------------------|---------8-----------------------8-------------------------------|
D|-----------------------------------------------------------------|-----------------------------------------------------------------|
A|-6---------------------------------------------------------------|-8---------------------------------------------------------------|
E|-----------------------------------------------------------------|-----------------------------------------------------------------|

E|---------------------------------8-------------------------------|---------8---------------------------------------8-------------L-|
B|-------------------------9---------------9-----------------------|-----------------9---------------------------------9-----------L-|
G|-----------------10------------------------------10--------------|-------------------------10--------------------------10--------L-|
D|---------11------------------------------------------------------|---------------------------------11--------------------11------L-|
A|-----------------------------------------------------------------|-----------------------------------------------------------------|
E|-6---------------------------------------------------------------|-6-------------------------------------------------------6-----L-|

E|-------6-------------------------------------------------------L-|-------9-------------------------------------------------------L-|
B|-----7---------------------------------------------------------L-|-----9---------------------------------------------------------L-|
G|---6-----------------------------------------------------------L-|---8-----------------------------------------------------------L-|
D|-----------------------------------------------------------------|-----------------------------------------------------------------|
A|-6-------------------------------------------------------------L-|-8-------------------------------------------------------------L-|
E|-----------------------------------------------------------------|-----------------------------------------------------------------|

E|-----------------8-----------------------------------------------|-----------------------------L---8-----------------------------L-|
B|-------------9---------------------------------------------------|-----------------------------L-------9-------------------------L-|
G|---------10------------------------------------------------------|-----------------------------L-----------10--------------------L-|
D|-----11----------------------------------------------------------|-----------------------------L---------------11----------------L-|
A|-----------------------------------------------------------------|-----------------------------------------------------------------|
E|-6---------------------------------------------------------------|-----------------------------L-------------------6-------------L-|

E|-----**********------|-----***********-----|------*********------|-----***********-----|
B|------*--------*-----|------*--------------|-----*---------------|-----*----*----*-----|
G|------*--------*-----|------*********------|------*********------|----------*----------|
D|------*********------|------*--------------|---------------*-----|----------*----------|
A|------*--------*-----|------*--------------|---------------*-----|----------*----------|
E|------*---------*----|-----***********-----|------*********------|---------***---------|


Bass

G|-----------------------------------------------------------------|-----------------------------------------------------------------|
D|-----------------------------------------------------------------|-----------------------------------------------------------------|
A|---------------------------------------------------------6-------|-8-------------------------------------------------------8-------|
E|-----------------------------------------------------------------|-----------------------------------------------------------------|

G|-----------------------------------------------------------------|-----------------------------------------------------------------|
D|-----------------------------------------------------------------|-----------------------------------------------------------------|
A|-----------------------------------------------------------------|-----------------------------------------------------------------|
E|-6-------------------------------------------------------6-------|-6---------------------------------------------------------------|

G|-----------------------------------------------------------------|---------6-------------------------------------------------------|
D|-------------------------9-------8---------------6---------------|-------------------------8---------------------------------------|
A|-6-------9-----------------------------------------------6-------|-8-------------------------------8---------------9-------8-------|
E|-----------------------------------------------------------------|-----------------------------------------------------------------|

G|-----------------------------------------------------------------|-----------------1-----------------------------------------------|
D|-----------------------------------------------------------------|---------1---------------1-------3-------1---------------1-------|
A|-.-------.-------.-------.-------.-------.-------.-------.-------|-3-----------------------------------------------4---------------|
E|-6-------6-------4-------4-------2-------2-------1-------1-------|-----------------------------------------------------------------|

G|---------------------------------3-------4-------6---------------|---------------------------------4-------6-------8---------------|
D|-1-------3-------4-----------------------------------------------|-3-------4-------6-----------------------------------------------|
A|-----------------------------------------------------------------|-----------------------------------------------------------------|
E|-----------------------------------------------------------------|-----------------------------------------------------------------|

G|-----------------------------------------------------------------|-----------------------------------------------------------------|
D|---------------------------------8-------6-------8---------------|-----------------------------------------------------------------|
A|---------9-------8-------6---------------------------------------|---------6-------8-------9---------------------------------------|
E|-6---------------------------------------------------------------|-6-------------------------------7---------------6---------------|

G|---------------------------------3---------------6---------------|-----------------------------------------------------------------|
D|-----------------4-----------------------------------------------|-3---------------6---------------4-------------------------------|
A|-6---------------------------------------------------------------|-------------------------------------------------6---------------|
E|-----------------------------------------------------------------|-----------------------------------------------------------------|

G|-----------------------------------------------------------------|-----------------------------------------------------------------|
D|-----------------------------------------------------------------|-----------------------------------------------------------------|
A|-----------------------------------------------------------------|-1-h-2-p-1-h-2-p-1-h-2-p-1-h-2-p-1-------------------------------|
E|-6---------------4---------------2---------------1---------------|-----------------------------------------------------------------|

G|--------____---------|--------_____--------|--------____--------|-------_______-------|
D|-------|    )--------|-------| ____|-------|-------/   /--------|------|__   __|------|
A|-------|   <---------|-------| ___|--------|-------\   \--------|---------| |---------|
E|-------|_|\_\--------|-------|_____|-------|-------/___/--------|---------|_|---------|


h = hammer on; p = pull off;
L = tied note, let ring through;
. = staccato notes
Login or Register to remove this ad.