Ads

People Who've Abandoned the Will to Live (Chrono Trigger) Guitar Tab

Submitted: Aug 18, 2013 by Colin_spade

5
Average: 5 (6 votes)
Download | Listen
Game: Chrono Trigger
Composer(s): Nobuo Uematsu, Yasunori Mitsuda, Noriko Matsueda
Style: Arrangement, Fingerstyle
Series: Chrono

AutoScroll: Slow | Medium | Fast
People Who Threw Away The Will To Live                      


                                                                Yasunori Mitsuda
Track 1 (Capo 1)



     E  E  E  E  H           E  E  E  E  Q    E  E   
E||-----------------------|-----------0-------------|
B||--3-----------1--------|--3-----3----------------|
G||--------2-----0--------|--------------2-------2--|
D||--------0--2-----------|--------0--2--3----2--0--|
A||-----0-----------------|-----0-------------------|
D||--0--------------------|--0----------------------|


  E  E  E  E  E  E  E  S S    E  E  E  E  H           E  E  E  E  H         
---------------------------|-----------------------|-----------------------|
--1-----------0------------|-----------0--1--------|--3-----------1--------|
-----------2--------0------|--------2--------------|--------2-----0--------|
--------3--------0-------0-|--2--2-----------------|--------0--2-----------|
-----3-----------------2---|--0--------------------|-----0-----------------|
--3-----------5------------|-----------------------|--0--------------------|


  E  E  E  E  Q    E  E     E  E  E  S  S E  E  E  E   
-----------0-------------|----------------------------|
--3-----3----------------|--1--------3p-1-0-----------|
--------------2-------2--|----------------------0-----|
--------0--2--3----2--0--|--------3----------0--------|
-----0-------------------|-----3-------------------2--|
--0----------------------|--3-------------5-----------|


  E  E  E  E  H           
------------------------||
-----------0------------||
--2-----2-----2--------*||
-----2-----------------*||
--0---------------------||
------------------------||




Duration Legend
---------------
W - whole
H - half
Q - quarter
E - 8th
S - 16th
T - 32nd
X - 64th
. - note dotted
|-n-|  - n-tuplets


Tablature Legend
----------------
L - tied note
x - dead note
g - grace note
(n) - ghost note
> - accentuded note
NH - natural harmonic
AH - artificial harmonic
TH - tapped harmonic
SH - semi harmonic
PH - pitch harmonic
h - hammer on
p - pull off
b - bend
br - bendRelease
pb - preBend
pbr - preBendRelease
brb - bendReleaseBend
\n/ - tremolo bar dip
\n - tremolo bar dive
-/n - tremolo bar Release up
/n\ - tremolo bar inverted dip
/n - tremolo bar return
-\n - tremolo bar Release down
S - shift slide
s - legato slide
/ -  slide into from below or out of upwards
\ -  slide into from above or out of downwards
~ - vibrato
W - wide vibrato
tr - trill
TP - tremolo picking
T - tapping
S - slap
P - pop
< - fade in
^ - brush up
v - brush down
Login or Register to remove this ad.

3 comments on People Who've Abandoned the Will to Live

A.k.a. "The Last Day of the

Very nice =)

Very nice =)

Clean, simple, good.

5

Clean, simple, good.