Ads

Memories of Green (Chrono Trigger) Guitar Tab

Submitted: Aug 18, 2013 by Colin_spade

4.666665
Average: 4.7 (3 votes)
Download | Listen
Game: Chrono Trigger
Composer(s): Nobuo Uematsu, Yasunori Mitsuda, Noriko Matsueda
Style: Arrangement, Fingerstyle
Series: Chrono

AutoScroll: Slow | Medium | Fast
Memories of Green                                 


                                                                Yasunori Mitsuda
Track 1



     S S  S S S S  S S S S  S S S S  S S    S S  S S S S  S S S S  S S E  E   
E||--3------3-3------3-3------3-3------3-|--3------3-3------3-3------3-------|
B||----0h-1-----0h-1-----0h-1-----0h-1---|----0h-1-----0h-1-----0h-1------0--|
G||--------------------2-----------------|--------------------2--------------|
D||-----------2-----------------2--------|-----------2-----------------2-----|
A||--0-----------------------------------|--0--------------------------------|
E||--------------------------------------|-----------------------------------|


    E  S S E  E  E  E  E  E     S S  S S S S  S S E  E  S S S S  
|---0----2----3--L-----2-----|------------------------------0-5-|
|-------------------0-----3--|----------------------------0-----|
|*---------------------------|---------0--------0----2----------|
|*---------------------------|----------------------------------|
|---0--3---0--3--0--3--0--3--|--0-2h-3---0-2h-3---0--3--0---3---|
|----------------------------|----------------------------------|


  E  S S E  S S E  E  E  E     S S  S S S S  S S S S  S S S S S S  
--7----7----5-4-0-----------|--0----------------------------------|
----------------------------|---------------------------------0---|
----------------------------|-------------------------------------|
----------------------------|---------2--------2--------2-------2-|
-----2------2------2-----2--|----0h-2-----0h-2-----0h-2-----0-2---|
--2------2------2-----2-----|--2--------2--------2--------2-------|


  E  S S E  E  E  E  E  E     S S  S S S S  S S E  E  S S S S  
--0----2----3--L-----2-----|------------------------------0-5-|
------------------0-----3--|----------------------------0-----|
---------------------------|---------0--------0----2----------|
---------------------------|----------------------------------|
--0--3---0--3--0--3--0--3--|--0-2h-3---0-2h-3---0--3--0---3---|
---------------------------|----------------------------------|


  E  S S E  S S E  E  E  E     S S  S S S S  S S S S  S S E  S S  
--7----7----5-4-0-----------|--0-----------------------------0-2-|
----------------------------|------------------------------------|
----------------------------|------------------------------------|
----------------------------|---------2--------2--------2--------|
-----2------2------2-----2--|----0h-2-----0h-2-----0h-2------2---|
--2------2------2-----2-----|--2--------2--------2--------2------|


  E  E  E  E  E  E  E  E     E  E  E  E  E  E  E  E   
--3-----------5-----------|--7-----------8--------8--|
--------------------------|--------------------------|
--------------------------|--------------------------|
--------------------------|--------------------------|
--0--3--0--3--0--3--0--3--|--0--3--0--3--0-----0-----|
--------------------------|-----------------8-----8--|


   E  S  S E  S S E  E  E  E     E  E  E  E  E  E  E  E   
--10----10----9-8-7-----------|--0-----------3--------5--|
------------------------------|-----0-----0-----0--------|
------0-------0------0-----0--|-----------------------4--|
---0-------0------0-----0-----|--------------------------|
------------------------------|--3-----3-----3-----3-----|
------------------------------|--------------------------|


  S S E  E  E  E  E  E  E     E  E  E  E  E  E  E  E     
--2-0-2--------------------|---------------------------||
---------------------------|-----------------------1---||
---------------------------|--------------------------*||
------0-----0-----0-----0--|-----0-----0-----0-----0--*||
---------------------------|---------------------------||
--0------0-----0-----0-----|--0-----0-----0-----0------||




Duration Legend
---------------
W - whole
H - half
Q - quarter
E - 8th
S - 16th
T - 32nd
X - 64th
. - note dotted
|-n-|  - n-tuplets


Tablature Legend
----------------
L - tied note
x - dead note
g - grace note
(n) - ghost note
> - accentuded note
NH - natural harmonic
AH - artificial harmonic
TH - tapped harmonic
SH - semi harmonic
PH - pitch harmonic
h - hammer on
p - pull off
b - bend
br - bendRelease
pb - preBend
pbr - preBendRelease
brb - bendReleaseBend
\n/ - tremolo bar dip
\n - tremolo bar dive
-/n - tremolo bar Release up
/n\ - tremolo bar inverted dip
/n - tremolo bar return
-\n - tremolo bar Release down
S - shift slide
s - legato slide
/ -  slide into from below or out of upwards
\ -  slide into from above or out of downwards
~ - vibrato
W - wide vibrato
tr - trill
TP - tremolo picking
T - tapping
S - slap
P - pop
< - fade in
^ - brush up
v - brush down
Login or Register to remove this ad.

1 comment on Memories of Green

Pretty good, I just think

4

Pretty good, I just think some of the base notes would sound better on the guitar if they were up an octave, or tweaked somehow.