Marle's Theme (Intermediate) (Chrono Trigger) Guitar Tab

Submitted: Feb 27, 2019 by Soul_Seeker2001 (Last updated: May 15, 2019)

0
Download | No audio :(
Game: Chrono Trigger
Composer(s): Nobuo Uematsu, Yasunori Mitsuda, Noriko Matsueda
Style: Fingerstyle
Series: Chrono

AutoScroll: Slow | Medium | Fast
Transcribed by ear only. Took lot's of time. Close enough.. enjoy!


|----0-----0--2----|--7---4----4-5-4--|--2--0----0---2---|------0--0--------|------------------|
|-0-----0--------0-|--7---5--5--------|--4--2-2----------|-1--0----0--0-----|-4----------------|
|----1--------2----|------4-----------|-----1---1----2---|----2----1----1---|-4--4--6--4-------|
|----2--------1----|------------------|------------------|------------------|-5--------6-------|
|------------------|------------------|------------------|------------------|-------0----------|
|------------------|------------------|------------------|------------------|----------4-------|



|-7--7--7--5-4--5--|--5--5--5--4--2---|-4----4--2--------|----------------4-|----------------0-|
|----7--6--7-6--5--|-----5--4--4--2---|-4----4--2-0--<12>|--5----5--4-----4-|--2----2----------|
|-------6----------|--------4---------|------------------|--6----6--4-----4-|--2----2--1-------|
|----6----------4--|-4---4------------|-2-------1--------|-----6-------4--2-|-----2----2-------|
|------------------|------------------|------------------|--4-------1-------|--0----------2----|
|------------------|------------------|------------------|------------------|----------0-------|


                                       ~Repeat if desired~
|-7--7-5-----------|--2--0------------|--2---------------|
|--------9--5(p)4--|--4--0---0-1---1--|--2---------------|
|-----------4------|-------1---2---2--|--1---------------|
|----7------4------|-----2-------1----|--2---------------|
|------------------|-----------0------|------------------|
|------------------|------------------|------------------|

Login or Register to remove this ad.