Manoria Cathedral (Chrono Trigger) Guitar Tab

Submitted: Sep 16, 2010 by Daugreano

5
Average: 5 (2 votes)
Download | Listen
Game: Chrono Trigger
Composer(s): Nobuo Uematsu, Yasunori Mitsuda, Noriko Matsueda
Style: 2 or more instruments, Alternate picking, Transcription
Series: Chrono

AutoScroll: Slow | Medium | Fast
Song: Manoria Cathedral
Game: Chrono Trigger
Composer(s): Nobuo Uematsu, Yasunori Mitsuda, Norihiko Matsueda
Tabbed by: Daugreano

Play 4x...

Guitar:
 
   Q    Q    Q      Q    Q    Q      Q    Q    Q      Q    Q    Q      Q    Q    Q
E|------11--------|------11--------|------11---13---|-14---13---11---|-9----11--------|
B|-11--------9----|-11--------9----|-11-------------|----------------|-----------11---|
G|-11-------------|-10--------10---|-8--------------|----------------|-10-------------|
D|----------------|----------------|-8--------------|----------------|----------------|
A|----------------|----------------|----------------|----------------|----------------|
E|----------------|----------------|----------------|----------------|----------------|

   Q    Q    Q      Q    Q    Q      H     Q
E|-9----11--------|-7--------------|------------|
B|-----------11---|-9---------9----|------------|
G|-11-------------|------11--------|-10---------|
D|----------------|----------------|-13----12---|
A|----------------|----------------|------------|
E|----------------|----------------|------------|




Guitar 2: 

   E   E   E   E   E   E     E   E   E   E   E   E     E   E   E   E   E   E     E   E   E   E   E   E
E|-11----------11--9-------|-----9-------------------|-11----------11--9-------|-----9-----------9-------|
B|---------11----------11--|-9-------11--9-------11--|---------11----------11--|-9-------11--9-------11--|
G|-----8-------------------|-----------------8-------|-----8-------------------|-------------------------|
D|-------------------------|-------------------------|-------------------------|-------------------------|
A|-------------------------|-------------------------|-------------------------|-------------------------|
E|-------------------------|-------------------------|-------------------------|-------------------------|

   E   E   E   E   E   E     E   E   E   E   E   E     E   E   E   E   E   E     E   E   E   E   E   E
E|-11----------11--9-------|-----9-------------------|-----------------9-------|-------------------------|
B|---------11----------11--|-9-------11--9-------11--|---------11----------11--|-----------------9-------|
G|-----8-------------------|-----------------8-------|-11----------11----------|-10--11--11--10------10--|
D|-------------------------|-------------------------|-----11------------------|-------------------------|
A|-------------------------|-------------------------|-------------------------|-------------------------|
E|-------------------------|-------------------------|-------------------------|-------------------------|

Login or Register to remove this ad.

2 comments on Manoria Cathedral

This is pretty darn sweet!

5

This is pretty darn sweet!

Underrated song

Underrated song