Main Theme (Chrono Trigger) Guitar Tab

Submitted: Jan 30, 2012 by isa iv

5
Average: 5 (2 votes)
Download | Listen
Game: Chrono Trigger
Composer(s): Nobuo Uematsu, Yasunori Mitsuda, Noriko Matsueda
Style: Transcription
Series: Chrono

AutoScroll: Slow | Medium | Fast
                                      Crono Theme                                         


Distortion Guitar
     W                   W                   W                   W                 
E||-------------------|-------------------|-------------------|-------------------|
B||-------------------|-------------------|-------------------|-------------------|
G||-------------------|-------------------|-------------------|-------------------|
D||-------------------|-------------------|-------------------|-------------------|
A||-------------------|-------------------|-------------------|-------------------|
E||-------------------|-------------------|-------------------|-------------------|


  W                   W                   W                   W                 
-------------------|-------------------|-------------------|-------------------|
-------------------|-------------------|-------------------|-------------------|
-------------------|-------------------|-------------------|-------------------|
-------------------|-------------------|-------------------|-------------------|
-------------------|-------------------|-------------------|-------------------|
-------------------|-------------------|-------------------|-------------------|


  H.           E  E     E.  S E  E  E  S S E  E     H        E  S S S E.   
---------------------|--2---3----2-------2-------|------------------0-5---|
------------------0--|--------------0---------3--|--L--------L----0-------|
---------------------|---------------------------|--------------0---------|
---------------------|---------------------------|------------------------|
---------------------|---------------------------|------------------------|
---------------------|---------------------------|------------------------|


  E  S S E  S S H           H.           E  E     E.  S E  E  E  S S E  E   
--7----7----5-4----------|---------------------|--2---3----2-------2-------|
----------------5--------|--L------------L-----|--------------0---------3--|
-------------------------|------------------4--|---------------------------|
-------------------------|---------------------|---------------------------|
-------------------------|---------------------|---------------------------|
-------------------------|---------------------|---------------------------|


  H        E  S S S E.     E  S S E  S S H           H.           E  S S  
------------------0-5---|--7----7----5-4----------|--------------------2-|
--L--------L----0-------|----------------5--------|--L------------L--5---|
--------------0---------|-------------------------|----------------------|
------------------------|-------------------------|----------------------|
------------------------|-------------------------|----------------------|
------------------------|-------------------------|----------------------|


  H        H           Q.     E  E  E  E   E     E   E  E  S S H         
--3--------5--------|--7------8-----8-----10--|-----10-----9-8-7--------|
--------------------|-------------------------|-------------------------|
--------------------|-------------------------|-------------------------|
--------------------|-------------------------|-------------------------|
--------------------|-------------------------|-------------------------|
--------------------|-------------------------|-------------------------|


  H.           E  E     H        H           H        H         
--L------------L-----|--0--------3--------|--5--------3--------|
------------------0--|--------------------|--------------------|
---------------------|--------------------|--------------------|
---------------------|--------------------|--------------------|
---------------------|--------------------|--------------------|
---------------------|--------------------|--------------------|


  S S S H        S S S S S    H.           E  E     E.  S E  E  E  S S E  E   
--2-0-2------------2-0-2---|---------------------|--2---3----2-------2-------|
---------------------------|------------------0--|--------------0---------3--|
---------------------------|---------------------|---------------------------|
---------------------------|---------------------|---------------------------|
---------------------------|---------------------|---------------------------|
---------------------------|---------------------|---------------------------|


  H        E  S S S E.     E  S S E  S S H           H.           E  E   
------------------0-5---|--7----7----5-4----------|---------------------|
--L--------L----0-------|----------------5--------|--L------------L-----|
--------------0---------|-------------------------|------------------4--|
------------------------|-------------------------|---------------------|
------------------------|-------------------------|---------------------|
------------------------|-------------------------|---------------------|


  E.  S E  E  E  S S E  E     H        E  S S S E.     E  S S E  S S H         
--2---3----2-------2-------|------------------0-5---|--7----7----5-4----------|
--------------0---------3--|--L--------L----0-------|----------------5--------|
---------------------------|--------------0---------|-------------------------|
---------------------------|------------------------|-------------------------|
---------------------------|------------------------|-------------------------|
---------------------------|------------------------|-------------------------|


  H.           E  S S    H        H           Q.     E  E  E  E   E   
--------------------2-|--3--------5--------|--7------8-----8-----10--|
--L------------L--5---|--------------------|-------------------------|
----------------------|--------------------|-------------------------|
----------------------|--------------------|-------------------------|
----------------------|--------------------|-------------------------|
----------------------|--------------------|-------------------------|


  E   E  E  S S H           H.           E  E     H        H           H        H         
-----10-----9-8-7--------|--L------------L-----|--0--------3--------|--5--------3--------|
-------------------------|------------------0--|--------------------|--------------------|
-------------------------|---------------------|--------------------|--------------------|
-------------------------|---------------------|--------------------|--------------------|
-------------------------|---------------------|--------------------|--------------------|
-------------------------|---------------------|--------------------|--------------------|


  S S S H        S S S S S    H.           E  E     E.  S E  E  E  S S E  E   
--2-0-2------------2-0-2---|---------------------|--2---3----2-------2-------|
---------------------------|------------------0--|--------------0---------3--|
---------------------------|---------------------|---------------------------|
---------------------------|---------------------|---------------------------|
---------------------------|---------------------|---------------------------|
---------------------------|---------------------|---------------------------|


  H        E  S S S E.     E  S S E  S S H           H.           E  E   
------------------0-5---|--7----7----5-4----------|---------------------|
--L--------L----0-------|----------------5--------|--L------------L-----|
--------------0---------|-------------------------|------------------4--|
------------------------|-------------------------|---------------------|
------------------------|-------------------------|---------------------|
------------------------|-------------------------|---------------------|


  E.  S E  E  E  S S E  E     H        E  S S S E.     E  S S E  S S H         
--2---3----2-------2-------|------------------0-5---|--7----7----5-4----------|
--------------0---------3--|--L--------L----0-------|----------------5--------|
---------------------------|--------------0---------|-------------------------|
---------------------------|------------------------|-------------------------|
---------------------------|------------------------|-------------------------|
---------------------------|------------------------|-------------------------|


  H.           E  S S    H        H           Q.     E  E  E  E   E   
--------------------2-|--3--------5--------|--7------8-----8-----10--|
--L------------L--5---|--------------------|-------------------------|
----------------------|--------------------|-------------------------|
----------------------|--------------------|-------------------------|
----------------------|--------------------|-------------------------|
----------------------|--------------------|-------------------------|


  E   E  E  S S H           H.           E  E     H        H           H        H         
-----10-----9-8-7--------|--L------------L-----|--0--------3--------|--5--------3--------|
-------------------------|------------------0--|--------------------|--------------------|
-------------------------|---------------------|--------------------|--------------------|
-------------------------|---------------------|--------------------|--------------------|
-------------------------|---------------------|--------------------|--------------------|
-------------------------|---------------------|--------------------|--------------------|


  S S S H        S S S S S    W                   W                   W                 
--2-0-2------------2-0-2---|-------------------|-------------------|-------------------|
---------------------------|-------------------|-------------------|-------------------|
---------------------------|-------------------|-------------------|-------------------|
---------------------------|-------------------|-------------------|-------------------|
---------------------------|-------------------|-------------------|-------------------|
---------------------------|-------------------|-------------------|-------------------|


  W                   W                   W                   W                 
-------------------|-------------------|-------------------|-------------------|
-------------------|-------------------|-------------------|-------------------|
-------------------|-------------------|-------------------|-------------------|
-------------------|-------------------|-------------------|-------------------|
-------------------|-------------------|-------------------|-------------------|
-------------------|-------------------|-------------------|-------------------|


  W                   W                   W                   W                 
-------------------|-------------------|-------------------|-------------------|
-------------------|-------------------|-------------------|-------------------|
-------------------|-------------------|-------------------|-------------------|
-------------------|-------------------|-------------------|-------------------|
-------------------|-------------------|-------------------|-------------------|
-------------------|-------------------|-------------------|-------------------|


  W                   W                   W                   W                 
-------------------|-------------------|-------------------|-------------------|
-------------------|-------------------|-------------------|-------------------|
-------------------|-------------------|-------------------|-------------------|
-------------------|-------------------|-------------------|-------------------|
-------------------|-------------------|-------------------|-------------------|
-------------------|-------------------|-------------------|-------------------|


   H.           E   S  S     E  S  S E   E  Q.     S S    E  S E.  S S E  S E.  E   
--12------------L--------|-----------------------------|-------5---3-2-0-----------|
-------------------10-12-|--12----10----12-----------7-|--8-----------------3---0--|
-------------------------|------------------9------9---|---------------------------|
-------------------------|-----------------------------|---------------------------|
-------------------------|-----------------------------|---------------------------|
-------------------------|-----------------------------|---------------------------|


  W                   E  S S S S S S E  E  E  E     E  S E.   Q    Q    S S  
-------------------|---------0-2---3----3--5--7--|--7--------10----8----7-8-|
--L----------------|-------0---------------------|-------7------------------|
-------------------|-----2-----------------------|--------------------------|
-------------------|-----------------------------|--------------------------|
-------------------|-----------------------------|--------------------------|
-------------------|-----------------------------|--------------------------|


  E  S E.  E  H           H        Q    Q       E.  E.  E  E.  E.  E   
--7----5------5--------|--L--------3----2----|--2---3---2----------0--|
-----------7-----------|---------------------|-------------3----------|
-----------------------|---------------------|-----------------2------|
-----------------------|---------------------|------------------------|
-----------------------|---------------------|------------------------|
-----------------------|---------------------|------------------------|


  W                  
-------------------||
-------------------||
-------------------||
-------------------||
-------------------||
-------------------||




Duration Legend
---------------
W - whole
H - half
Q - quarter
E - 8th
S - 16th
T - 32nd
X - 64th
. - note dotted
|-n-|  - n-tuplets


Tablature Legend
----------------
L - tied note
x - dead note
g - grace note
(n) - ghost note
> - accentuded note
NH - natural harmonic
AH - artificial harmonic
TH - tapped harmonic
SH - semi harmonic
PH - pitch harmonic
h - hammer on
p - pull off
b - bend
br - bendRelease
pb - preBend
pbr - preBendRelease
brb - bendReleaseBend
\n/ - tremolo bar dip
\n - tremolo bar dive
-/n - tremolo bar Release up
/n\ - tremolo bar inverted dip
/n - tremolo bar return
-\n - tremolo bar Release down
S - shift slide
s - legato slide
/ -  slide into from below or out of upwards
\ -  slide into from above or out of downwards
~ - vibrato
W - wide vibrato
tr - trill
TP - tremolo picking
T - tapping
S - slap
P - pop
< - fade in
^ - brush up
v - brush down
Login or Register to remove this ad.