Login or Register to remove this ad.

Main Theme (Chrono Trigger) Guitar Tab

Submitted: Sep 29, 2010 by auriplane (Last updated: Jan 18, 2014)

5
Average: 5 (4 votes)
Download | Listen
Game: Chrono Trigger
Composer(s): Nobuo Uematsu, Yasunori Mitsuda, Noriko Matsueda
Style: Alternate picking, Transcription
Series: Chrono

This song is also called Chrono Trigger

AutoScroll: Slow | Medium | Fast
                  Chrono Trigger - Main Theme GUITAR TAB
                         Song by Yasunori Mitsuda

                  Tabbed by auriplane ([email protected])


This is based on the soundtrack version.  The version that plays in the
game's intro is the same, except that Part A repeats three times instead
of two.  So, if you're playing along with the SNES, pretend I wrote 3x.

Standard tuning.




        Intro
   W                                H               H
e |--------------------------------|--------------------------------|
B |--------------------------------|--------------------------------|
G |--------------------------------|----------------2---------------|
D |--------------------------------|2-------------------------------|
A |2-------------------------------|--------------------------------|
E |--------------------------------|--------------------------------|


   H               H                H               H
e |----------------0---------------|--------------------------------|
B |--------------------------------|10--------------12--------------|
G |4-------------------------------|--------------------------------|
D |--------------------------------|--------------------------------|
A |--------------------------------|--------------------------------|
E |--------------------------------|--------------------------------|


   W                                H               H
e |--------------------------------|10--------------12--------------|
B |13------------------------------|--------------------------------|
G |--------------------------------|--------------------------------|
D |--------------------------------|--------------------------------|
A |--------------------------------|--------------------------------|
E |--------------------------------|--------------------------------|


   E.    E.    S S H                H..                         E
e |14----15---14-------------------|--------------------------------|
B |-------------15-12~-------------|--------------------------------|
G |--------------------------------|----------------------------4---|
D |--------------------------------|--------------------------------|
A |--------------------------------|--------------------------------|
E |--------------------------------|--------------------------------|


         Part A  (play twice)

   E.    E.    E   E.    E.    E    H               E   S S S E.
e |------2-----3---------2---------|------------------------0h5-----s
B |5---------------------------3~--|L-------------------------------|
G |----------------4---------------|--------------------2h4---------|
D |--------------------------------|--------------------------------|
A |--------------------------------|--------------------------------|
E |--------------------------------|--------------------------------|


   E   S E.    S S H                H               Q.          E
e s7-----7-----5-4-----------------|--------------------------------|
B |----------------5~--------------|L-------------------------------|
G |--------------------------------|----------------------------4---|
D |--------------------------------|--------------------------------|
A |--------------------------------|--------------------------------|
E |--------------------------------|--------------------------------|


   E.    E.    E   E.    E.    E    H               E   S S S E.
e |------2-----3---------2---------|------------------------0h5-----s
B |5---------------------------3~--|--------------------------------|
G |----------------4---------------|--------------------2h4---------|
D |--------------------------------|--------------------------------|
A |--------------------------------|--------------------------------|
E |--------------------------------|--------------------------------|


   E   S E.    S S H                H               Q.          S S
e s7-----7-----5-4-----------------|--------------------------------|
B |----------------5~--------------|----------------------------5h7-|
G |--------------------------------|--------------------------------|
D |--------------------------------|--------------------------------|
A |--------------------------------|--------------------------------|
E |--------------------------------|--------------------------------|


   H               H                Q.          E   E   E   E   E
e |----------------5---------------|7-----------8-------8------s10--|
B |8-------------------------------|--------------------------------|
G |--------------------------------|--------------------------------|
D |--------------------------------|--------------------------------|
A |--------------------------------|--------------------------------|
E |--------------------------------|--------------------------------|


   E   E   E   S S H                H               Q.          E
e |----10------9-8-7~--------------|L-------------------------------|
B |--------------------------------|----------------------------3---|
G |--------------------------------|--------------------------------|
D |--------------------------------|--------------------------------|
A |--------------------------------|--------------------------------|
E |--------------------------------|--------------------------------|


   H               H                H               H
e |----------------3---------------|5---------------3---------------|
B |5-------------------------------|--------------------------------|
G |--------------------------------|--------------------------------|
D |--------------------------------|--------------------------------|
A |--------------------------------|--------------------------------|
E |--------------------------------|--------------------------------|

                                    First ending
   S S S S Q       Q       S S S S  H..                         E
e |--------------------------------|--------------------------------|
B |7-5-7-------------------7-5-7---|--------------------------------|
G |--------------------------------|----------------------------4---|
D |--------------------------------|--------------------------------|
A |--------------------------------|--------------------------------|
E |--------------------------------|--------------------------------|

                                    Second ending
                                    H               E.    E   S E
                                    --------------------------0h5---s
  Play part A twice.  When you      --------------------------------|
  get to the last measure, play     ----------------2-----4---------|
  the first ending the first time,  --------------------------------|
  and the second the second time.   --------------------------------|
                                    --------------------------------|


         Part B  (play twice)
   H..                         S S  H               H
e s7---------------------------5-3-s2-------------------------------|
B |--------------------------------|----------------3---------------|
G |--------------------------------|--------------------------------|
D |--------------------------------|--------------------------------|
A |--------------------------------|--------------------------------|
E |--------------------------------|--------------------------------|


   E.    E.    E   H                W
e |------------5~--L---------------|L-------------------------------|
B |2-----3-------------------------|--------------------------------|
G |--------------------------------|--------------------------------|
D |--------------------------------|--------------------------------|
A |--------------------------------|--------------------------------|
E |--------------------------------|--------------------------------|


   H.                      E   E    H               H
e s7-----------------------5---7---|9---------------10--------------|
B |--------------------------------|--------------------------------|
G |--------------------------------|--------------------------------|
D |--------------------------------|--------------------------------|
A |--------------------------------|--------------------------------|
E |--------------------------------|--------------------------------|


   W                                H               E.    E   S E
e |7-------------------------------|L-------------------------0h5---s  \
B |--------------------------------|--------------------------------|   \
G |--------------------------------|----------------2-----4---------|    |  Only play this section
D |--------------------------------|--------------------------------|    |  the first time around.
A |--------------------------------|--------------------------------|   /
E |--------------------------------|--------------------------------|  /


         Part C
   H..                        S  S  E.    E.    E   Q      E    S S
e s12-------------------------10h12|--------------------------------|
B |--------------------------------|12----10----12------------------|
G |--------------------------------|----------------9-----------9-11|
D |--------------------------------|--------------------------------|
A |--------------------------------|--------------------------------|
E |--------------------------------|--------------------------------|


   E.    E.    S S E.    E.    E    W
e |--------------------------------|--------------------------------|
B |------10------------------------|--------------------------------|
G |12---------12-11-9--------------|--------------------------------|
D |----------------------12----9~--|L-------------------------------|
A |--------------------------------|--------------------------------|
E |--------------------------------|--------------------------------|


   E   S S S E   E.    E   E   E    E.    E.    Q       Q       S S
e |--------------------------------|7-----------10------8-------7h8p|
B |--------------------7---8---10--|--------------------------------|
G |----------7---9-----------------|------9-------------------------|
D |----7-9-10----------------------|--------------------------------|
A |--------------------------------|--------------------------------|
E |--------------------------------|--------------------------------|


   E.    E.    E   H                Q       Q       Q       Q
e |7-------------------------------|--------------------------------|
B |------10----8---10~-------------|L---------------8-------7-------|
G |--------------------------------|--------------------------------|
D |--------------------------------|--------------------------------|
A |--------------------------------|--------------------------------|
E |--------------------------------|--------------------------------|


   E.    E.    E   E.    E.    E
e |--------------------------------|
B |7-----8-----7-------------------|
G |----------------7-----------9---|
D |----------------------9---------|
A |--------------------------------|
E |--------------------------------|

Login or Register to remove this ad.

6 comments on Main Theme

Incredible. Thanks.

Incredible. Thanks.

^-^ You're welcome

^-^ You're welcome

wow! Long awaited for this

5

wow! Long awaited for this tab on this site. Like how many years did it take for this to get here! haha. really happy you took the effort to get this here. Great tab.

Nice work, I have it

5

Nice work, I have it memorized a different way, but I am going to try this.

Great work, alittle fix though

5
 e s12---------------------10h12|--------------------------------|
B |--------------------------------|12----10----12------------------|
G |--------------------------------|----------------9-----------9-11|
D |--------------------------------|--------------------------------|
A |--------------------------------|--------------------------------|
E |--------------------------------|--------------------------------|


   E.    E.    S S E.    E.    E    W
e |--------------------------------|--------------------------------|
B |------10------------------------|--------------------------------|
G |12---------12-11-9----7---------|--------------------------------|
D |--------------------(12)----9~--|L-------------------------------|
A |--------------------------------|--------------------------------|
E |--------------------------------|--------------------------------|

The previous "11" that started on the second row i copied here was wrong, probably a misstype and if you slide down to 7 on the third string instead of playing the 12 you'll be in position for the next 7-9-10 that comes on the next row already. Good job though!

Oh, thanks! Yeah, that was

Oh, thanks! Yeah, that was supposed to be a 12 :-)