Magus Battle Theme (Chrono Trigger) Guitar Tab

Submitted: Aug 20, 2013 by Colin_spade

5
Average: 5 (3 votes)
Download | Listen
Game: Chrono Trigger
Composer(s): Nobuo Uematsu, Yasunori Mitsuda, Noriko Matsueda
Style: Arrangement, Fingerstyle
Series: Chrono

AutoScroll: Slow | Medium | Fast
Mangus' Theme                                   


                                                                Yasunori Mitsuda
Track 1



     H.              H.              H.              H.            
E||---------------|---------------|---------------|---------------|
B||---------------|---------------|---------------|---------------|
G||---------------|---------------|---------------|---------------|
D||---------------|---------------|---------------|---------------|
A||---------------|---------------|---------------|---------------|
E||--0------------|--1------------|--0------------|--3------------|


    H.              H        Q       H.              Q    Q    Q     
|---0------------|----------------|---------------|-----------------|
|----------------|--3--------1----|--0------------|-----------------|
|*---------------|----------------|---------------|--2----0---------|
|*---------------|----------------|---------------|------------3----|
|----------------|----------------|---------------|-----------------|
|---0------------|--1-------------|--0------------|--1--------------|


                                                   ^             
  H.              H        Q       H.              H.            
--0------------|----------------|---------------|--0------------|
---------------|--3--------1----|--0------------|--0------------|
---------------|----------------|---------------|--2------------|
--2------------|--L-------------|---------------|--2------------|
---------------|----------------|---------------|---------------|
--0------------|--1-------------|--0------------|--3------------|


    E.  S E  E  E  E     E.  S E  E  E  E     E.  S E  E  E  E   
|---0-----------------|--------------------|--------------------|
|------------3-----1--|--0-----------------|--------------------|
|*--------------------|-----------2--0-----|--------------------|
|*--------------------|-----------------3--|--2--------3--------|
|---------------------|--------------------|--------------------|
|---0---0-0--1--1--1--|--0---0-0--3--3--3--|--0---0-0--1--1--1--|


  E.  S E  E  E  E     E.  S E  E  E  E     E.  S E  E  E  E   
--------------------|--0-----------------|--------------------|
--------------------|-----------3-----1--|--0-----------------|
-----------0--------|--------------------|-----------2--0--2--|
--2-----------------|--------------------|-----------------3--|
-----------2--1--0--|--------------------|--------------------|
--0---0-0-----------|--0---0-0--1--1--1--|--0---0-0--3--3--3--|


  E.  S E  E  E  E     E.  S S  S E  E  E       E.  S E  E  E  E   
--------------------|-----------------------||-----------0--------|
--0--------1--------|--3-----2p-1-0---------||--3-----------------|
--------------------|----------------------*||--------------4--3--|
--2-----------------|--2-------------------*||--2--------2--------|
--------------------|-------------2--1--0---||--------------------|
--0---0-0--1--1--1--|--0---0-0--------------||--0---0-0-----------|


  E  E  E  E  E  E     E  E  E  E  E  E     E  E  E  E  E  S  S  
--0-----3--0--------|--------------------|----------------------|
-----3-----------1--|--0-----1-----0-----|----------------------|
--------------------|-----------------0--|----------------------|
--------------------|--------------------|--2--------------0h-2-|
--3--3--3--3--3--3--|--2--2--2--2--2--2--|--0--0--0--0--0--0----|
--------------------|--------------------|----------------------|


  E  E  S S  E  E  S  S    E  E  E  E  E  E     E  E  E  E  E  E   
------------------------|--3-----3--0--------|--------------------|
------------------------|-----3-----------1--|--0-----1-----3-----|
--0-------0h-2-----0h-2-|--------------------|--------------------|
--------2---------------|--------------------|--------------------|
--2--2--2----2--2--2----|--3--3--3--3--3--3--|--2--2--2--2--2--2--|
------------------------|--------------------|--------------------|


  E  E  E  E  E  E     E  E  E  E   E  E       E  S E  E  S E   
--0-----3-----5-----|--5-----4------------||-------------------|
--------------------|--5------------------||---1--1------------|
--------------------|--7------------------||*--0--0------------|
--0--0--0--0--0--0--|-----------2p--0-----||*------------------|
--0--0--0--0--0--0--|------------------3--||---0-------0----3--|
--------------------|--0--0--0------------||------3-------3----|


  E  E  S E  E  S S  S E     E  S E  E  S E     E  E  S E  E  S S  S E     
--------------------------|------------------|---------------------------||
--1--1--1---------1h-3----|--1--1------------|--1--1--1---------4p-3-----||
--0--0--0-----------------|--0--0------------|--0--0--0-----------------*||
------------------1----0--|------------------|------------------1----0--*||
--0--0--0----0--0---------|--0-------0----3--|--0--0--0----0--0----------||
--------------------------|-----3-------3----|---------------------------||


  Q    Q    Q       Q    Q    Q       H        Q       H.             
--0----1----3----|--5----7----8----|--7-------------|---------------||
-----------------|--7--------------|--7-------------|---------------||
-----------------|-----------------|----------------|---------------||
--2----0---------|-----------------|----------------|---------------||
------------4----|--3--------------|--7-------------|---------------||
-----------------|------------7----|-----------7----|--0------------||




Duration Legend
---------------
W - whole
H - half
Q - quarter
E - 8th
S - 16th
T - 32nd
X - 64th
. - note dotted
|-n-|  - n-tuplets


Tablature Legend
----------------
L - tied note
x - dead note
g - grace note
(n) - ghost note
> - accentuded note
NH - natural harmonic
AH - artificial harmonic
TH - tapped harmonic
SH - semi harmonic
PH - pitch harmonic
h - hammer on
p - pull off
b - bend
br - bendRelease
pb - preBend
pbr - preBendRelease
brb - bendReleaseBend
\n/ - tremolo bar dip
\n - tremolo bar dive
-/n - tremolo bar Release up
/n\ - tremolo bar inverted dip
/n - tremolo bar return
-\n - tremolo bar Release down
S - shift slide
s - legato slide
/ -  slide into from below or out of upwards
\ -  slide into from above or out of downwards
~ - vibrato
W - wide vibrato
tr - trill
TP - tremolo picking
T - tapping
S - slap
P - pop
< - fade in
^ - brush up
v - brush down
Login or Register to remove this ad.

2 comments on Magus Battle Theme

Cool stuff!

Cool stuff!

Very nice.

Very nice.