Lavos (Chrono Trigger) Guitar Tab

Submitted: Aug 04, 2009 by auriplane (Last updated: Feb 06, 2010)

5
Average: 5 (5 votes)
Download | Listen
Game: Chrono Trigger
Composer(s): Nobuo Uematsu, Yasunori Mitsuda, Noriko Matsueda
Style: Arrangement, Fingerstyle
Series: Chrono

AutoScroll: Slow | Medium | Fast
                      Chrono Trigger - Lavos GUITAR TAB
                           Song by Yasunori Mitsuda

             Tabbed & arranged by auriplane ([email protected])


This song is in E-A-D-G-A-D tuning, so you need to tune the top two strings down
by a whole step (two frets).  You can put in some tremolo picking on the open
sixth string here and there if you want, but I didn't write that in.

For some reason I don't like this one when I listen to the MIDI / GP5 file too
much, but I like the sound of it on my guitar @[email protected];

Capo on 1.


    Part A


      Q     E   E   H           Q     E  E  H           Q     E   E   H         
D||--------12--11---L--------|-------10--9--L--------|-------12--11---L--------|
A||--------12--11---L--------|-------10--9--L--------|-------12--11---L--------|
G||*-------12--11---L--------|-------10--9--L--------|-------12--11---L--------|
D||*-------------------------|-----------------------|-------------------------|
A||--------------------------|-----------------------|-------------------------|
E||---0----------------------|--0--------------------|--0----------------------|


  Q     E  E  H           H        H           H        H           H        H         
-------10--9--L--------|--0--------0--------|-----------3--------|--2-----------------|
-------10--9--L--------|--0--------0--------|--4--------3--------|--2--------0--------|
-------10--9--L--------|--0--------0--------|--4--------3--------|--2--------0--------|
-----------------------|--------------------|--4-----------------|-----------2--------|
-----------------------|--------------------|-----------3--------|--4--------3--------|
--0--------------------|--0--------3--------|--4-----------------|--------------------|


  H        H           Q    E  E  Q.     E     Q    E  E  H          
-----------0--------|-----------------------|-----------------------|
--3--------0--------|--2--------------------|-----------------------|
--0--------0--------|--2--------------------|----------------------*|
--3-----------------|--2--------------------|----------------------*|
--1--------1--------|--0----0-----0---------|--0----0-----0---------|
--------------------|----------0---------0--|----------0------------|



    Part B




  E  E  E  E  H           E  E  E  E  Q    E  E     E  E  E  E  E  E  E  S S    E  E  E  E  H         
--0--------------------|--0-----0--2-------------|---------------------------|-----------------------|
--------0-----3--------|--------------0-------0--|--3--------0--2------------|-----------------------|
--2-----------0--------|--2----------------------|--------------------0------|-----------------------|
--0-----0--2-----------|--0-----0--2--3----2--0--|--------3--------0-------0-|--2--------------------|
-----0-----------------|-----0-------------------|-----3-----------------2---|--0-----0--2--3--------|
-----------------------|-------------------------|--1-----------3------------|-----0-----------------|


  E  E  E  E  H           E  E  E  E  Q    E  E     E  E  E  S S E  E  E  S S    E  E  E  E  H         
--0--------------------|--0-----0--2-------------|-----------0----------------|-----------------------|
--0-----0-----3--------|--0-----0-----0-------0--|--3----------3-2------------|--0--------------------|
--2-----2-----0--------|--2-----2--0--2-------2--|--0------------0-----0------|--2--------------------|
--0-----0--2-----------|--0-----0--2--3----2--0--|--3-----3------0--0-------0-|--2--------------------|
-----0-----------------|-----0-------------------|-----3------------------2---|--------0--2--0--------|
-----------------------|-------------------------|--1------------3------------|--0--0-----------------|


  W                   W                   Q    E  E  Q    E  E     Q    E  E  Q    E  E   
--0----------------|-------------------|------------------------|-------------5----------|
--0----------------|--3----------------|------------------------|--5----------5----------|
-------------------|--2----------------|-------------5----------|--5----------5----------|
--3----------------|--2----------------|--5----------5----------|--5----------5----------|
--1----------------|--0----------------|--5----------5----------|--5----------5----------|
-------------------|-------------------|--3----3--3--3----3--3--|--3----3--3--3----3--3--|


  E.  T T E.  T T E.  T T S S S S    E.  T T E.  T T E.  T T S S S S  
--2-------2-------2-------0---0---|--2-------2-------2-------0---0---|
--2-------2-------2-------0---0---|--2-------2-------2-------0---0---|
--2-------2-------2-------0---0---|--2-------2-------2-------0---0---|
----------------------------------|----------------------------------|
--------------------------2---2---|--------------------------2---2---|
--0---0-0-0---0-0-0---0-0---------|--0---0-0-0---0-0-0---0-0---------|


  E.  T T E.  T T E.  T T S S S S    E.  T T E.  T T H         
--2-------2-------2-------0---0---|--2-------2-------2--------|
--2-------2-------2-------0---0---|--2-------2-------2--------|
--2-------2-------2-------0---0---|--2-------2-------2--------|
----------------------------------|---------------------------|
--------------------------2---2---|---------------------------|
--0---0-0-0---0-0-0---0-0---------|--0---0-0-0---0-0-0--------|


    Part C


   Q     E   E   H          Q     E  E  H           Q     E   E   H           Q     E  E  H          
--------12--11---L--------|------10--9--L--------|-------12--11---L--------|-------10--9--L--------||
--------12--11---L--------|------10--9--L--------|-------12--11---L--------|-------10--9--L--------||
--------12--11---L--------|------10--9--L--------|-------12--11---L--------|-------10--9--L--------||
--------------------------|----------------------|-------------------------|-----------------------||
--------------------------|----------------------|-------------------------|-----------------------||
---0----------------------|-0--------------------|--0----------------------|--0--------------------||




Duration Legend
---------------
W - whole
H - half
Q - quarter
E - 8th
S - 16th
T - 32nd
. - note dotted
|-n-|  - n-tuplets


Tablature Legend
----------------
L - tied note
Login or Register to remove this ad.

4 comments on Lavos

Wow, I feel regret that I

Wow, I feel regret that I can't see auri's real performance... he/she is the very excelent arranger and instruments player...
The "The day the world revive" part in this song make it softer,I love it :D

awesome! ^^ sounds really

awesome! ^^
sounds really good on guitar pro =P

Good job

5

Good job. I rather enjoyed that.

Sweeeet! I had saved this as

5

Sweeeet! I had saved this as part of my project but I guess this was before I started commenting on the pieces I was saving?

Anyway, love the tuning, and, you know, the fact that it makes a kickass arrangement like this possible. Even a pretty stellar "The Day the World Revived" section in there.