Last Battle (Chrono Trigger) Guitar Tab

Submitted: Oct 22, 2011 by BacardiBreezer

3.5
Average: 3.5 (2 votes)
Download | Listen
Game: Chrono Trigger
Composer(s): Nobuo Uematsu, Yasunori Mitsuda, Noriko Matsueda
Style: 2 or more instruments, Alternate picking, Transcription
Series: Chrono

This song is also called Lavos Core

AutoScroll: Slow | Medium | Fast
Lavos Core
Chrono Trigger
Composer: Yasunori Mitsuda, Nobuo Uematsu, Noriko Matsueda
Tabbed by Bacardibreezer
10/17/11

Guitar 1 

Rest 16 measures

e|-----------------------------|------------------------------|
B|-----------------8~-----7~---|----------------8~-----10~----|
G|---9~-----7~-----------------|--9~-----7~-------------------|
D|-----------------------------|------------------------------|      \
A|-----------------------------|------------------------------|       \
E|-----------------------------|------------------------------|        \
                                                                       x2
e|-----------------------------|------------------------------|       /
B|-----------------------------|--------------------------9~--|      /
G|--8~-------------11~----10~--|---8~-------------11~---------|     /
D|---------11~-----------------|----------11~-----------------|
A|-----------------------------|------------------------------|
E|-----------------------------|------------------------------|

e|-----------------------------|------------------------------|
B|-----------------------------|------------------------------|
G|--------7-----6-----5--------|--------------L---------------|
D|--------7-----6-----5--------|--------------L---------------|
A|-----------------------------|------------------------------|
E|-----------------------------|------------------------------|

e|--11~-------13~--------------|------------------------------|
B|--11~-------13~--------13~---|--------------L---------------|
G|-----------------------12~---|--------------L---------------|
D|-----------------------------|------------------------------|
A|-----------------------------|------------------------------|
E|-----------------------------|------------------------------| x2




Guitar 2 - Rhythm

D|------------------|------------------|------------------|-------------------|
A|------------------|------------------|------------------|-------------------|
F|------------------|------------------|------------------|-------------------|
C|--------2-----4---|--------2-----4---|--------2-----4---|--------2-----4----|
G|----2-4---2-4---4-|----2-4---2-4---4-|----2-4---2-4---4-|----2-4---2-4---4--|
D|--2---------------|--2---------------|--2---------------|--2----------------| x2

D|------------------|------------------|------------------|-------------------|
A|------------------|------------------|------------------|-------------------|
F|------------------|------------------|------------------|-------------------|
C|--------1-----3---|--------1-----3---|--------1-----3---|--------1-----3----|
G|----1-3---1-3---3-|----1-3---1-3---3-|----1-3---1-3---3-|----1-3---1-3---3--|
D|--1---------------|--1---------------|--1---------------|--1----------------| x2

D|------------------|------------------|------------------|-------------------|
A|------------------|------------------|------------------|-------------------|
F|------------------|------------------|------------------|-------------------|
C|--------2-----4---|--------2-----4---|--------2-----4---|--------2-----4----|
G|----2-4---2-4---4-|----2-4---2-4---4-|----2-4---2-4---4-|----2-4---2-4---4--|
D|--2---------------|--2---------------|--2---------------|--2----------------| x2

D|------------------|------------------|------------------|-------------------|
A|------------------|------------------|------------------|-------------------|
F|------------------|------------------|------------------|-------------------|
C|--------1-----3---|--------1-----3---|--------1-----3---|--------1-----3----|
G|----1-3---1-3---3-|----1-3---1-3---3-|----1-3---1-3---3-|----1-3---1-3---3--|
D|--1---------------|--1---------------|--1---------------|--1----------------| x2

D|------------------|------------------|------------------|-------------------|
A|------------------|------------------|------------------|-------------------|
F|------------------|------------------|------------------|-------------------|
C|--------2-----4---|--------2-----4---|--------2-----4---|--------2-----4----|
G|----2-4---2-4---4-|----2-4---2-4---4-|----2-4---2-4---4-|----2-4---2-4---4--|
D|--2---------------|--2---------------|--2---------------|--2----------------| x2

D|------------------|------------------|------------------|-------------------|
A|------------------|------------------|------------------|-------------------|
F|------------------|------------------|------------------|-------------------|
C|--------1-----3---|--------1-----3---|--------1-----3---|--------1-----3----|
G|----1-3---1-3---3-|----1-3---1-3---3-|----1-3---1-3---3-|----1-3---1-3---3--|
D|--1---------------|--1---------------|--1---------------|--1----------------| x2

D|--------------------------------------------|
A|--------------------------------------------|
F|--------------------------------------------|
C|----2--------2-----------1--------1---------|
G|-------2--4-----------------1--3------------|
D|--------------------------------------------|

D|-----------------------------------|------------------------------------|
A|-----------------------------------|------------------------------------|
F|-----------------------------------|------------------------------------|
C|-----------------------------------|------------------------------------|
G|--5------3-----5------3------5-----|--5------3-----5------3------5------|
D|----3-5----3-5----3-5---3--5---3-5-|----3-5----3-5----3-5---3--5---3-5--| x5




Guitar 3

Rest 16 measures

e|-----------------------14-------14-------14-------|-15-------15-------14-------14---------------------|
B|-----17-------17----------------------------------|-------------------------------------15----12-15---|
G|--------14-16----14-16----14-16----14-16----14-16-|----14-16----14-16----14-16----14-16----14---------|
D|--14----------------------------------------------|---------------------------------------------------|
A|--------------------------------------------------|---------------------------------------------------|
E|--------------------------------------------------|---------------------------------------------------|

e|--------------------------------14-------14-------|-15------15-------17-------17----------------------|
B|-----17-------17-------17-------------------------|---------------------------------------------------|
G|--------14-16----14-16----14-16----14-16----14-16-|---14-16----14-16----14-16----14-16----14-16-------|
D|--14----------------------------------------------|---------------------------------------------------|
A|--------------------------------------------------|---------------------------------------------------|
E|--------------------------------------------------|---------------------------------------------------|

x2


e|-----------------------13-------13-------13-------|-14-------14-------13-------13---------------------|
B|-----16-------16----------------------------------|-------------------------------------14-------14---|
G|--------13-15----13-15----13-15----13-15----13-15-|----13-15----13-15----13-15----13-15----13-15------|
D|--13----------------------------------------------|---------------------------------------------------|
A|--------------------------------------------------|---------------------------------------------------|
E|--------------------------------------------------|---------------------------------------------------|

e|--------------------------------13-------13-------|-14-------14-------16-------16-------18-------18---|
B|-----16-------16-------16-------------------------|---------------------------------------------------|
G|--------13-15----13-15----13-15----13-15----13-15-|----13-15----13-15----13-15----13-15----13-15------|
D|--13----------------------------------------------|---------------------------------------------------|
A|--------------------------------------------------|---------------------------------------------------|
E|--------------------------------------------------|---------------------------------------------------|

x2

e|-----------------------14-------14-------14-------|-15-------15-------14-------14---------------------|
B|-----17-------17----------------------------------|-------------------------------------15----12-15---|
G|--------14-16----14-16----14-16----14-16----14-16-|----14-16----14-16----14-16----14-16----14---------|
D|--14----------------------------------------------|---------------------------------------------------|
A|--------------------------------------------------|---------------------------------------------------|
E|--------------------------------------------------|---------------------------------------------------|

e|--------------------------------14-------14-------|-15------15-------17-------17----------------------|
B|-----17-------17-------17-------------------------|---------------------------------------------------|
G|--------14-16----14-16----14-16----14-16----14-16-|---14-16----14-16----14-16----14-16----14-16-------|
D|--14----------------------------------------------|---------------------------------------------------|
A|--------------------------------------------------|---------------------------------------------------|
E|--------------------------------------------------|---------------------------------------------------|

x2


e|-----------------------13-------13-------13-------|-14-------14-------13-------13---------------------|
B|-----16-------16----------------------------------|-------------------------------------14-------14---|
G|--------13-15----13-15----13-15----13-15----13-15-|----13-15----13-15----13-15----13-15----13-15------|
D|--13----------------------------------------------|---------------------------------------------------|
A|--------------------------------------------------|---------------------------------------------------|
E|--------------------------------------------------|---------------------------------------------------|

e|--------------------------------13-------13-------|-14-------14-------16-------16-------18-------18---|
B|-----16-------16-------16-------------------------|---------------------------------------------------|
G|--------13-15----13-15----13-15----13-15----13-15-|----13-15----13-15----13-15----13-15----13-15------|
D|--13----------------------------------------------|---------------------------------------------------|
A|--------------------------------------------------|---------------------------------------------------|
E|--------------------------------------------------|---------------------------------------------------|

x2


e|---------------------------------------------------------------------------|
B|--15-------15-------15-------15-------14-------14-------14-------14--------|
G|-----12-13----12-13----12-13----12-13----11-12----11-12----11-12----11-12--|
D|---------------------------------------------------------------------------|
A|---------------------------------------------------------------------------|
E|---------------------------------------------------------------------------|

e|--------------------------------------------------|------------------------------------------------------|
B|--13-------13-------13-------11-------11-------11-|-13-------13-------13-------11-------11---------------|
G|-----10-12----10-12----10-12----10-12----10-12----|----10-12----10-12----10-12----10-12----10-12--10-12--|
D|--------------------------------------------------|------------------------------------------------------|
A|--------------------------------------------------|------------------------------------------------------|
E|--------------------------------------------------|------------------------------------------------------| x10

e|---15--15--15--15--15--15--15--15---|
B|------------------------------------|
G|------------------------------------|
D|------------------------------------|
A|------------------------------------|
E|------------------------------------|
Login or Register to remove this ad.