Kingdom Trial (Chrono Trigger) Guitar Tab

Submitted: Jan 06, 2014 by N0Stars

5
Average: 5 (2 votes)
Download | Listen
Game: Chrono Trigger
Composer(s): Nobuo Uematsu, Yasunori Mitsuda, Noriko Matsueda
Style: Arrangement, Fingerstyle
Series: Chrono

AutoScroll: Slow | Medium | Fast
Chrono Trigger - Kingdom Trial

Composed by Yasunori Mitsuda

Arranged for Guitar by N0Stars

Gtr I (E A D G B E) - 'Untitled'

 4/4
  Gtr I
  Q  E E Q  E E   Q  E E Q  q    Q  E E Q  E E   Q  E E Q  q
|----0-0----0-0-|----0-0-1--0--|----0-0----0-0-|----0-0-1--0-|
|----1------1---|----1---1--1--|----1------1---|----1---1--1-|
|----2------2---|----2---2--2--|----2------2---|----2---2--2-|
|---------------|--------3--2--|---------------|--------3--2-|
|-0------0------|-0------------|-0------0------|-0-----------|
|---------------|--------------|---------------|-------------|


    E E E E Q  E E   E E E E Q  E E   E E E E q  q    Q  E S S Q  E E
||----0---0-1----0-|---0------------|---------------|-----------------|
||o-----4---1------|-4---0-0-3----1-|---------0--1--|-----------------|
||------2---2------|---------2--2---|---2-1-2-1--2--|-----------------|
||------2------2---|-----2---3--2---|-----2------2--|-3----2-3-2------|
||o-0-------0------|-0--------------|-0-------------|-3--------2------|
||-----------------|----------------|---------0-----|-0--0-0---0--0-0-|


  E E E E Q  E E   E E E E Q  E E
|---0---0-1----0-|---0------------|
|-----4---1------|-4---0-0-3----1-|
|-----2---2------|---------2--2---|
|-----2------2---|-----2---3--2---|
|-0-------0------|-0--------------|
|----------------|----------------|


  E E E E q  q    Q  E E Q  E E   Q  E E q  q
|---------------|----0-0----0-0-|----0-0-1--0---||
|---------0--1--|----1------1---|----1---1--1--o||
|---2-1-2-1--2--|-2--2------2---|----2---2--2---||
|-----2------2--|-2-------------|--------3--2---||
|-0-------------|-0------0------|-0------------o||
|---------0-----|---------------|---------------||


   3/4
    E E E E E E   E E E E  E E   E  E  E E  E E   E E E E E E
||----5-4-5-7---|---8-7-8-10---|---12-10-8-10-7-|---8-7-5-7-4-----||
||o-----------5-|------------8-|------------8---|---------5------o||
||----------4---|----------7---|------------7---|---------4-------||
||--------------|----------0---|----------------|-----------------||
||o-0-----------|--------------|----------------|-0--------------o||
||----------4---|-8------------|-8----------7---|---------4-------||


 3/4
  H.          H.
|-5---------|-------|
|-5---------|-------|
|-5---------|-------|
|-----------|-------|
|-----------|-------|
|-5---------|-3-----|


  E E E E E E   E E E E E E   E E E E E E   E E E E E E
|-------------|-------------|-------------|----------------|
|-------------|-------------|-3-2-3---2---|-3-2-3---2------|
|-2---2-------|-2---2-------|-4-----4-----|-4-----4--------|
|-4-6---4-6---|-4-6---4-6---|-4---------4-|-4---------4----|
|-4---------4-|-4---------4-|-2-----------|-2--------------|
|-2-----------|-2-----------|-------------|----------------|


  E E E E E E   E E E E E E   E E E E E E   E E E E E E
|-------------|-------------|-------------|----------------|
|-------------|-------------|-0---0-------|-0---0----------|
|-2---2-------|-2---2-------|-0-2---0-2---|-0-2---6---6----|
|-4-6---4-6---|-4-6---4-6---|-0---------0-|-0-----7-9------|
|-4---------4-|-4---------4-|-------------|----------------|
|-2-----------|-2-----------|-3-----------|-3-----5--------|


  E E E E E E   E E E E E E   E E E E E E   E E E E E E
|-------------|-------------|-1-0-1---0---|-1-0-1-3-1-3----|
|-3-2-3---2---|-3-2-3-5---5-|-3-----3-----|-3--------------|
|-4-----4-----|-4-----6-7---|-2---------2-|-2--------------|
|-4---------4-|-4-----------|-0-----------|-0-----2--------|
|-2-----------|-2-----4-----|-------------|----------------|
|-------------|-------------|-------------|----------------|


  E E E E E E   E E E E E E   Q  q.   e   Q  h
|-4-3-4---3---|-4-3-4-6---6-|-4--4----4-|-3--3----|
|-------6-----|---------9---|-----------|---------|
|-5---------5-|-5-----7-----|-5--5------|-4--4----|
|-3-----------|-3-----5-----|-3--3------|-2--2----|
|-------------|-------------|-----------|---------|
|-------------|-------------|-----------|---------|


  Q  q.   e   Q  h      Q  q.  e   Q  h      Q  q.  e   Q   h
|-4--4----4-|-3--3----|-2--2---2-|-1--1----|-2--2---2-|-1---1----|
|-----------|---------|----------|---------|----------|----------|
|-5--5------|-4--4----|-3--3-----|-2--2----|-3--3-----|-2---2----|
|-3--3------|-2--2----|-1--1-----|-0--0----|-1--1-----|-0---0----|
|-----------|---------|----------|---------|----------|----------|
|-----------|---------|----------|---------|----------|----------|


  H.        H    Q    H.        +H.
|-3-------|-2-------|-0-------|-(0)----|
|---------|------3--|---------|--------|
|---------|---------|---------|--------|
|-2-------|---------|-2-------|-(2)----|
|-2-------|---------|-2-------|-(2)----|
|-0-------|---------|-0-------|-(0)----|


 4/4
  Q  E E Q  E E   Q  E E q  q    Q  E E Q  E E   Q  E E q  q
|----0-0----0-0-|----0-0-1--0--|----0-0----0-0-|----0-0-1--0----|
|----1------1---|----1---1--1--|----1------1---|----1---1--1----|
|----2------2---|----2---2--2--|----2------2---|----2---2--2----|
|---------------|--------3--2--|---------------|--------3--2----|
|-0------0------|-0------------|-0------0------|-0--------------|
|---------------|--------------|---------------|----------------|


    E E E E Q  E E   E E E E Q  E E   E E E E q  q    Q  E S S Q  E E
||----0---0-1----0-|---0------------|---------------|--------------------|
||o-----4---1------|-4---0-0-3----1-|---------0--1--|--------------------|
||------2---2------|---------2--2---|---2-1-2-1--2--|--------------------|
||------2------2---|-----2---3--2---|-----2------2--|-3----2-3-2---------|
||o-0-------0------|-0--------------|-0-------------|-3--------2---------|
||-----------------|----------------|---------0-----|-0--0-0---0--0-0----|


  E E E E Q  E E   E E E E Q  E E
|---0---0-1----0-|---0------------|
|-----4---1------|-4---0-0-3----1-|
|-----2---2------|---------2--2---|
|-----2------2---|-----2---3--2---|
|-0-------0------|-0--------------|
|----------------|----------------|


  1.
  E E E E q  q    Q  E E Q  E E   Q  E E q  q
|---------------|----0-0----0-0-|----0-0-1--0---||
|---------0--1--|----1------1---|----1---1--1--o||
|---2-1-2-1--2--|-2--2------2---|----2---2--2---||
|-----2------2--|-2-------------|--------3--2---||
|-0-------------|-0------0------|-0------------o||
|---------0-----|---------------|---------------||


  2.
  E E E E q  q    q  q  H      +H.
|---------------|----0--5----|-(5)----*|
|---------0-----|-1--0--5----|-(5)----*|
|---2-1-2----1--|-2--1--5----|-(5)----*|
|-----2------2--|----2-------|--------*|
|-0----------2--|-------0----|-(0)----*|
|---------0-----|------------|--------*|


Duration Legend
---------------
W - whole; H - half; Q - quarter; E - 8th; S - 16th; T - 32nd; X - 64th; a - acciaccatura
+ - note tied to previous; . - note dotted; .. - note double dotted
Uncapitalized letters represent notes that are staccato (1/2 duration)
Irregular groupings are notated above the duration line
Duration letters will always appear directly above the note/fret number it represents the
duration for.  Duration letters with no fret number below them represent rests.  Multi-
bar rests are notated in the form Wxn, where n is the number of bars to rest for.  Low
melody durations appear below the staff

Tablature Legend
----------------
 h   - hammer-on
 p   - pull-off
 b   - bend
 pb  - pre-bend
 r   - bend release (if no number after the r, then release immediately)
 /\  - slide into or out of (from/to "nowhere")
 s   - legato slide
 S   - shift slide
  - natural harmonic
[n]  - artificial harmonic
n(n) - tapped harmonic
 ~   - vibrato
 tr  - trill
 T   - tap
 TP  - trem. picking
 PM  - palm muting
\n/  - tremolo bar dip; n = amount to dip
 \n  - tremolo bar down
 n/  - tremolo bar up
/n\  - tremolo bar inverted dip
 =   - hold bend; also acts as connecting device for hammers/pulls
 <>  - volume swell (louder/softer)
 x   - on rhythm slash represents muted slash
 o   - on rhythm slash represents single note slash

Misc Legend
-----------
 |  - bar
||  - double bar
||o - repeat start
o|| - repeat end
*|  - double bar (ending)
 :  - bar (freetime)
 $  - Segno
 &  - Coda
Tempo markers -  = BPM(8/16=s8/s16), where s8 = swing 8ths, s16 = swing 16ths


***************************************************************************************
* Generated using Power Tab Editor by Brad Larsen - http://powertab.guitarnetwork.org *
***************************************************************************************
Login or Register to remove this ad.

6 comments on Kingdom Trial

Good tab, but I think this

Good tab, but I think this part starting at measure 20 is easier this way:

  E E E E E E   E E E E E E   E E E E E E   E E E E E E
|-------------|-------------|-------------|----------------|
|-------------|-------------|-3-2-3---2---|-3-2-3---2------|
|-2-1-2---1---|-2-1-2---1---|-4-----4-----|-4-----4--------|
|-4-----4-----|-4-----4-----|-4---------4-|-4---------4----|
|-4---------4-|-4---------4-|-2-----------|-2--------------|
|-2-----------|-2-----------|-------------|----------------|


  E E E E E E   E E E E E E   E E E E E E   E E E E E E
|-------------|-------------|-------------|----------------|
|-------------|-------------|-0---0-------|-0---0-1-0-1----|
|-2-1-2---1---|-2-1-2---1---|-0-2---0-2---|-0-2---2--------|
|-4-----4-----|-4-----4-----|-0---------0-|-0--------------|
|-4---------4-|-4---------4-|-------------|-------0--------|
|-2-----------|-2-----------|-3-----------|-3--------------|


  E E E E E E   E E E E E E   E E E E E E   E E E E E E
|-------------|-------0---0-|-1-0-1---0---|-1-0-1-3-1-3----|
|-3-2-3---2---|-3-2-3-2-3---|-3-----3-----|-3--------------|
|-4-----4-----|-4-----------|-2---------2-|-2--------------|
|-4---------4-|-4-----------|-0-----------|-0-----2--------|
|-2-----------|-2-----4-----|-------------|----------------|
|-------------|-------------|-------------|----------------|

  E E E E E E   E E E E E E   Q  q.   e   Q  h
|-4-3-4---3---|-4-3-4-6-4-6-|-4--4----4-|-3--3----|
|-------6-----|-------------|-----------|---------|
|-5---------5-|-5-----7-----|-5--5------|-4--4----|
|-3-----------|-3-----5-----|-3--3------|-2--2----|
|-------------|-------------|-----------|---------|
|-------------|-------------|-----------|---------|

Hmmm...Your version might be

Hmmm...Your version might be a bit easier to play, but I don't think it sounds quite as good. If you play the G# using the first fret, you have to release the barre on the second fret and the chord isn't sustained properly.

...Huh. I can't link a text file that I have uploaded to my gametabs account. Is that not possible any more?

The file browser thing still

The file browser thing still works for me. I can click through to text files I've uploaded, and then use that link elsewhere.

It still isn't working...

When I preview the comment, the link I insert disappears and the text I have it attached to appears with the 'p' tag instead of the 'a' tag. I've tried typing it manually as well as using the 'insert/edit link' command, but neither seem to work.

http://www.gametabs.net/files/user/N0Stars/Chrono%20Trigger%20-%20Kingdo...

Maybe the link is somehow invisible to me only...?

Edit: I've wrapped the sentence above with 'a' tags using the 'insert/edit link' command, but it seems to get rewrapped in 'p' tags once I post this comment according to the page source...I'm very confused.

Ah, I see the problem! And I

Ah, I see the problem! And I can't make your link work--I just tried editing the post.

Ash needs to allow links in comments, I guess. The new filtering breaks them. I can't do it either. Maybe you could go post about this in that "Sexy" thread or send Ash a PM or something.

Alright, thanks for figuring

Alright, thanks for figuring that out. I'll ask Ash about changing it.