Kingdom Trial (Chrono Trigger) Guitar Tab

Submitted: May 25, 2011 by demigorgon (Last updated: May 25, 2011)

4
Average: 4 (6 votes)
Download | Listen
Game: Chrono Trigger
Composer(s): Nobuo Uematsu, Yasunori Mitsuda, Noriko Matsueda
Style: Arrangement, Fingerstyle
Series: Chrono

Click here for a video example.

AutoScroll: Slow | Medium | Fast
Standard tuning
capo 3
music composed by Yasunori Mitsuda
arranged by akguitar aka demigorgon
any feedback is more than welcome!




Track 1 (Capo 3)
     H        Q    Q       H        Q    Q       H        Q    Q     
E||---------------------|---------------------|---------------------|
B||-----------1----1----|-----------1----1----|-----------1----1----|
G||-----------2----2----|-----------2----2----|-----------2----2----|
D||-----------2----2----|-----------2----2----|-----------2----2----|
A||--0------------------|--0------------------|--0------------------|
E||---------------------|---------------------|---------------------|


  Q    Q    Q    Q       H        Q    Q       H        Q    Q     
----------------------|---------------------|---------------------|
--3--------------1----|-----------1----1----|-----------1----1----|
------------2---------|-----------2----2----|-----------2----2----|
-------2--------------|-----------2----2----|-----------2----2----|
----------------------|--0------------------|--0------------------|
--0-------------------|---------------------|---------------------|


  H        Q    Q       Q    Q    Q    Q         Q    Q    Q    Q     
---------------------|----------------------||--------0---------0----|
-----------1----1----|--3--------------1----||-------------4---------|
-----------2----2----|------------2---------||*------------2---------|
-----------2----2----|-------2--------------||*------------2---------|
--0------------------|----------------------||---0-------------------|
---------------------|--0-------------------||-----------------------|


  Q    Q    Q    Q       Q    Q    Q    Q       Q    Q    Q    Q     
--1--------------0----|-------0--------------|----------------------|
----------------------|--4---------0---------|--3---------1---------|
------------2---------|----------------------|----------------------|
-------2--------------|-----------------2----|-------3---------2----|
--0-------------------|--0-------------------|--0-------------------|
----------------------|------------0---------|------------0---------|


  Q    Q    Q    Q       Q    Q    Q    Q       Q    Q    Q    E  E   
----------------------|----------------------|-----------------------|
----------------------|--0---------1---------|-----------------------|
-------2----1----2----|----------------------|-----------------------|
------------2---------|-----------------2----|--3--------------2--3--|
--0-------------------|--0----2--------------|-------0----3----------|
----------------------|------------0---------|--0--------------------|


  Q    Q    Q    Q       Q    Q    Q    Q       Q    Q    Q    Q     
-------0--------------|-------0---------0----|--1--------------0----|
----------------------|------------4---------|----------------------|
-----------------1----|------------2---------|------------2---------|
--2-------------------|------------2---------|-------2--------------|
----------------------|--0-------------------|--0-------------------|
------------0---------|----------------------|----------------------|


  Q    Q    Q    Q       Q    Q    Q    Q       Q    Q    Q    Q     
-------0--------------|----------------------|----------------------|
--4---------0---------|--3---------1---------|----------------------|
----------------------|----------------------|-------2----1----2----|
-----------------2----|-------3---------2----|------------2---------|
--0-------------------|--0-------------------|--0-------------------|
------------0---------|------------0---------|----------------------|


  Q    Q    Q    Q       H        Q    Q       Q    Q    Q    Q       
----------------------|---------------------|-----------------------||
--0---------1---------|-----------1----1----|--3--------------1-----||
----------------------|-----------2----2----|------------2---------*||
-----------------2----|-----------2----2----|-------2--------------*||
--0----2--------------|--0------------------|-----------------------||
------------0---------|---------------------|--0--------------------||


   Q    Q    Q       Q    Q    Q       Q    Q    Q       Q    Q    Q     
------------------|-----------------|-----------------|-----------------|
------------------|-------0---------|-------1---------|--1----3---------|
*-------2----1----|--2--------------|------------4----|------------0----|
*-----------------|------------2----|-----------------|-----------------|
---0--------------|-----------------|-----------------|-----------------|
------------------|-------0---------|--1--------------|-------3---------|


  Q    Q    Q       Q    Q    Q       Q    Q    Q       Q    Q    Q       
-------0---------|-----------------|-----------------|------------------||
------------3----|--1----3----0----|-------1----0----|-------0----------||
-----------------|-----------------|-----------------|--2---------1----*||
-----------------|-----------------|-----------------|-----------------*||
--3--------------|-----------------|-----------------|------------------||
-----------------|-------3---------|--1--------------|-------0----------||


  H.              H.              Q    Q    Q       Q    Q    Q     
---------------|---------------|-----------------|-----------------|
---------------|---------------|-----------------|-----------------|
--2------------|--0------------|--2---------2----|-----------------|
--2------------|--0------------|-------6---------|--4----6---------|
--0------------|---------------|-----------------|------------4----|
---------------|--3------------|--2--------------|-------2---------|


  Q    Q    Q       Q    Q    Q       Q    Q    Q       Q    Q    Q     
-----------------|-----------------|-----------------|-----------------|
-----------------|-----------------|--3----2----3----|-------2---------|
--2---------2----|-----------------|--4--------------|--4--------------|
-------6---------|--4----6---------|--4--------------|------------4----|
-----------------|------------4----|--2--------------|-----------------|
--2--------------|-------2---------|-----------------|-----------------|


  Q    Q    Q       Q    Q    Q       Q    Q    Q       Q    Q    Q     
-----------------|-----------------|-----------------|-----------------|
--3----2----3----|-------2---------|-----------------|-----------------|
--4--------------|--4--------------|--2---------2----|-----------------|
--4--------------|------------4----|-------6---------|--4----6---------|
--2--------------|-----------------|-----------------|------------4----|
-----------------|-----------------|--2--------------|-----------------|


  Q    Q    Q       Q    Q    Q       Q    Q    Q       Q    Q    Q     
-----------------|-----------------|-----------------|-----------------|
-----------------|-----------------|--0---------0----|-----------------|
--2---------2----|-----------------|-------2---------|--0----2---------|
-------6---------|--4----6---------|-----------------|------------0----|
-----------------|------------4----|-----------------|-----------------|
--2--------------|-----------------|--3--------------|-----------------|


  Q    Q    Q       Q    Q    Q       Q    Q    Q       Q    Q    Q     
-----------------|-----------------|-----------------|-----------------|
--0---------0----|--2----0----2----|--3----2----3----|-------2---------|
-------2---------|-----------------|--4--------------|--4--------------|
-----------------|-----------------|--4--------------|------------4----|
-----------------|-----------------|--2--------------|-----------------|
--3--------------|-----------------|-----------------|-----------------|


  Q    Q    Q       Q    Q    Q       Q    Q    Q       Q    Q    Q     
-----------------|--0---------0----|--1----0----1----|-------0---------|
--3----2----3----|-------3---------|-----------------|--3--------------|
--4--------------|-----------------|-----------------|------------2----|
--4--------------|-----------------|--0--------------|-----------------|
--2--------------|-----------------|-----------------|-----------------|
-----------------|-----------------|-----------------|-----------------|


  Q    Q    Q       Q    Q    Q       Q    Q    Q       Q    Q    Q     
--1----0----1----|--3----1----3----|--4----3----4----|-------3---------|
-----------------|-----------------|-----------------|--6--------------|
-----------------|-----------------|-----------------|------------5----|
--0--------------|-----------------|--3--------------|-----------------|
-----------------|-----------------|-----------------|-----------------|
-----------------|-----------------|-----------------|-----------------|


  Q    Q    Q       Q    Q    Q       Q.     Q.        Q.     Q.      
--4----3----4----|--6----4----6----|--7------7------|--7------6------|
-----------------|-----------------|--9------9------|--9------8------|
-----------------|-----------------|----------------|----------------|
--3--------------|-----------------|----------------|----------------|
-----------------|-----------------|----------------|----------------|
-----------------|-----------------|----------------|----------------|


  Q.     Q.        Q.     Q.        Q.     Q.        Q.     Q.      
--6------7------|--7------7------|--6------6------|--5------5------|
--8------9------|--9------9------|--8------8------|--7------7------|
----------------|----------------|----------------|----------------|
----------------|----------------|----------------|----------------|
----------------|----------------|----------------|----------------|
----------------|----------------|----------------|----------------|


  Q.     Q.        Q.     Q.        Q.     Q.        Q.     Q.      
--5------4------|--4------5------|--5------5------|--4------4------|
--7------6------|--6------7------|--7------7------|--6------6------|
----------------|----------------|----------------|----------------|
----------------|----------------|----------------|----------------|
----------------|----------------|----------------|----------------|
----------------|----------------|----------------|----------------|


  Q    Q    Q       W                  
--3----2---------|--0----------------||
--1---------3----|--1----------------||
--2--------------|--2----------------||
-----------------|--2----------------||
--0--------------|--0----------------||
-----------------|-------------------||




Duration Legend
---------------
W - whole
H - half
Q - quarter
E - 8th
S - 16th
T - 32nd
X - 64th
. - note dotted
|-n-|  - n-tuplets


Tablature Legend
----------------
L - tied note
x - dead note
g - grace note
(n) - ghost note
> - accentuded note
NH - natural harmonic
AH - artificial harmonic
TH - tapped harmonic
SH - semi harmonic
PH - pitch harmonic
h - hammer on
p - pull off
b - bend
br - bendRelease
pb - preBend
pbr - preBendRelease
brb - bendReleaseBend
\n/ - tremolo bar dip
\n - tremolo bar dive
-/n - tremolo bar Release up
/n\ - tremolo bar inverted dip
/n - tremolo bar return
-\n - tremolo bar Release down
S - shift slide
s - legato slide
/ -  slide into from below or out of upwards
\ -  slide into from above or out of downwards
~ - vibrato
W - wide vibrato
tr - trill
TP - tremolo picking
T - tapping
S - slap
P - pop
< - fade in
^ - brush up
v - brush down

Enjoy all :)
Login or Register to remove this ad.

4 comments on Kingdom Trial

It's like riding a unicycle

4

Excellent! This is a blast to play. =D

Great tab! I don't know why

5

Great tab! I don't know why it had such a low rating, but really, good tab indeed :)

This is indeed fun to play,

This is indeed fun to play, even with no capo, however I think it might have a few errors in notes.

Very good mate!

5

Very good mate!