Ads

Jolly Ol' Spekkio (Chrono Trigger) Guitar Tab

Submitted: Jan 19, 2011 by sir0nion (Last updated: Jan 20, 2011)

4.666665
Average: 4.7 (3 votes)
Download | Listen
Game: Chrono Trigger
Composer(s): Nobuo Uematsu, Yasunori Mitsuda, Noriko Matsueda
Style: Arrangement, Fingerstyle
Series: Chrono

AutoScroll: Slow | Medium | Fast
Delightful Spekkio
Chrono Trigger
Yasunori Mitsuda
James Carson
07/27/2010


(Capo 1)
     H.           E  E     E.  S E  S E.  E  E  E   
E||---------------------|--0-----------------------|
B||---------------------|--------0----2------0-----|
G||---------------------|-----------------------2--|
D||------------------2--|-----------4--------------|
A||---------------------|-----------------0--0-----|
E||---------------------|--0---0----0--------------|


  E.  T  T E  Q    E  E  E     E.  S E  S E.  E  E  E   
----------------------------|--0-----------------------|
----------------------------|--------0----2------0-----|
--1---2p-1------------------|-----------------------2--|
-----------2--4----------2--|-----------4--------------|
-------------------2--2-----|-----------------0--0-----|
--0---0-------0-------------|--0---0----0--------------|


  E.  T  T E  Q    E  E  E     E.  S E  S E.  E  E  E   
----------------------------|--0-----------------------|
----------------------------|--------0----2------0-----|
--1---2p-1------------------|-----------------------2--|
-----------4--2----------2--|-----------4--------------|
--2---2-------2-------------|-----------------0--0-----|
-------------------0--0-----|--0---0----0--------------|


  E.  T  T E  Q    E  E  E     E.  S E  S E.  E  E  E   
----------------------------|--0-----------------------|
----------------------------|--------0----2------0-----|
--1---2p-1------------------|-----------------------2--|
-----------2--4----------2--|-----------4--------------|
-------------------2--2-----|-----------------0--0-----|
--0---0-------0-------------|--0---0----0--------------|


  E.  T  T E  Q    E  E  E     E.  E.  Q    E  Q     
----------------------------|-----------------------|
----------------------------|--0-------2----0-------|
--1---2p-1------------------|------------------2----|
-----------4--2-------------|-----------------------|
--2---2-------2-------------|---------------0--0----|
-------------------0--0-----|--0---0---0------------|


  E  S S E  S. E  T E  E  E     E  S S E  S E  S E  S S S S  
---------------0--0----0--2--|--4--0---2----0--0----0-2-4-5-|
---------0--2-------2--------|------------2------2----------|
--1--2-----------------------|------------------------------|
-----------------------------|------------------------------|
--------------------2--2-----|-------------------0--0-------|
--0----0----0----------------|--0----0----0-----------------|


  E  S S E  S E.  E  Q      
-----5---4--2-0-----------||
--------------------------||
--------------------------||
--------------------------||
--2----2----2-------------||
------------------0--0----||




Duration Legend
---------------
W - whole
H - half
Q - quarter
E - 8th
S - 16th
T - 32nd
X - 64th
. - note dotted
|-n-|  - n-tuplets


Tablature Legend
----------------
L - tied note
x - dead note
g - grace note
(n) - ghost note
> - accentuded note
NH - natural harmonic
AH - artificial harmonic
TH - tapped harmonic
SH - semi harmonic
PH - pitch harmonic
h - hammer on
p - pull off
b - bend
br - bendRelease
pb - preBend
pbr - preBendRelease
brb - bendReleaseBend
\n/ - tremolo bar dip
\n - tremolo bar dive
-/n - tremolo bar Release up
/n\ - tremolo bar inverted dip
/n - tremolo bar return
-\n - tremolo bar Release down
S - shift slide
s - legato slide
/ -  slide into from below or out of upwards
\ -  slide into from above or out of downwards
~ - vibrato
W - wide vibrato
tr - trill
TP - tremolo picking
T - tapping
S - slap
P - pop
< - fade in
^ - brush up
v - brush down
Login or Register to remove this ad.

2 comments on Jolly Ol' Spekkio

Awesome

5

Awesome dude incredible tab i cant belive your tabbing skills
I S I N C R E D I B L E S T I L L i want to see more of your tabs

This tab was pretty

This tab was pretty straight-forward. I didn't have to sacrifice anything for playability, which is good because this song is super fun to play.