Ads

The Hidden Truth (Chrono Trigger) Guitar Tab

Submitted: Mar 15, 2015 by JordanVS

5
Average: 5 (3 votes)
Download | Listen
Game: Chrono Trigger
Composer(s): Nobuo Uematsu, Yasunori Mitsuda, Noriko Matsueda
Style: Arrangement, Fingerstyle
Series: Chrono

AutoScroll: Slow | Medium | Fast
The Hidden Truth                                                     
Chrono Trigger
Yasunori Mitsuda
JordanVS

Tempo : 125
 
     E  E  E  E  E  E  E  E     E  E  E  E  E  E  E  E     E  E  E  E  E  E  E  E     E  E  E  E  E  E  E  E   
E||--0--7--5--7--3--5--2--3--|--0--7--5--7--3--5--2--3--|--0--7--5--7--3--5--2--3--|--0--7--5--7-----5--------|
B||--------------------------|--------------------------|--------------------------|--------------8-----7--8--|
G||--------------------------|--------------------------|--------------------------|--------------------------|
D||--------------------------|--0-----------------------|--------------------------|--0-----------------------|
A||--7-----------------------|--------------------------|--3-----------------------|--------------------------|
E||--------------------------|--------------------------|--------------------------|--------------------------|


  E  E  E  E  E  E  E  E     E  E  E  E  E  E  E  E       E  E  E  S S E  E  E  S S    E  E  E  S S Q    E  E     
--0--7--5--7-----5--------|--0--7--5--7-----5--------||-----------------------------|---------------------------||
--0-----------8-----7--8--|--0-----------8-----7--8--||------0--0---------0--0------|-----0--0------2----3------||
--0-----------------------|--0-----------------------||*-----0--0---------0--0------|-----0--0------3----4-----*||
--------------------------|--------------------------||*-----2--2---------2--2------|-----2--2------4----5-----*||
--7-----7-----7-----7-----|--7-----7-----7-----7-----||-----------------------------|---------------------------||
--------------------------|--------------------------||---0--------0-0-0--------0-0-|--0--------0-0-0----2--3---||


   E  E  E  E  E  E  E  E     E  E  Q    Q    E  E     E  E  E  E  E  E  Q       E  E  E  S  S Q    Q     
------7--6--7--8--------7--|--6--7-------5-------3--|-----0-----0--2-----3----|--------------------------|
------0--0--------0--0-----|--------7---------0-----|--------4----------------|--1--------0h-1-0---------|
*-----0--0--------0--0-----|-----0--0----5----0-----|-----0--0--------2--2----|---------------------4----|
*--------------------------|-------------7----2-----|--2----------------------|-----4--4------------4----|
---7-----------7-----------|--7----------6----------|--------------0----------|--2-------------2----6----|
---------------------------|------------------------|-------------------------|--------------------------|


  E  E  E  E  E  E  E  E     E  E  Q    Q    E  E     E  E  E  E  E  E  Q       E  E  Q    Q    Q       
-----7--6--7--8--------7--|--6--7-------5-------3--|-----0-----0--2-----3----|--0---------------------||
-----0--0--------0--0-----|--------7---------0-----|--------4--------0--0----|-----0--0----1----0-----||
-----0--0--------0--0-----|-----0--0----5----0-----|-----0--0----------------|-----0--0----2----0----*||
--------------------------|-------------7----2-----|--2----------------------|--2----------2----2----*||
--7-----------7-----------|--7----------6----------|--------------2----------|------------------------||
--------------------------|------------------------|-------------------------|------------------------||


           ^                              
  H        H           W                  
-----------0--------|--L----------------||
-----------0--------|--L----------------||
--2--------0--------|--L----------------||
--4--------2--------|--L----------------||
--2-----------------|-------------------||
--------------------|-------------------||




Duration Legend
---------------
W - whole
H - half
Q - quarter
E - 8th
S - 16th
T - 32nd
X - 64th
. - note dotted
|-n-|  - n-tuplets


Tablature Legend
----------------
L - tied note
x - dead note
^ - brush up
v - brush down
Login or Register to remove this ad.

1 comment on The Hidden Truth

This one would require a bit

5

This one would require a bit of practice to get smooth but it sounds pretty good on first play!