Guardia Castle (Chrono Trigger) Guitar Tab

Submitted: Aug 13, 2010 by Ranulf

3.333335
Average: 3.3 (3 votes)
Download | Listen
Game: Chrono Trigger
Composer(s): Nobuo Uematsu, Yasunori Mitsuda, Noriko Matsueda
Style: 2 or more instruments, Transcription
Series: Chrono

AutoScroll: Slow | Medium | Fast
Guardia Castle
Chrono Trigger
Tabbed by Ranulf
Composed by Yasunori Mitsuda

            ------------------
              Intro & Rhythm
            ------------------
e|----------------------------------------------|
B|----------------------------------------------|
G|--8---10---11--11-10-11-10--8---10---11-11-13-|
D|----------------------------------------------|
A|----------------------------------------------|
E|----------------------------------------------|

                ----------
                   Lead
                ----------
e|--------------------------------------------------------9-------------------|
B|-----------7---6-7-9--7-6--7--6--------------------9------12-11-12-11-9-----|
G|---------8-----------------------8--6------------10----------------------11-|
D|------9--------------------------------------11-----------------------------| 2x
A|--9-------------------------------------11----------------------------------|
E|----------------------------------------------------------------------------|

|--------------14-13-----------------------14-13-18-|
|--14---14--16-------14--------14---14--16----------|
|-------------------------15------------------------|
|---------------------------------------------------| 2x
|---------------------------------------------------|
|---------------------------------------------------|

|---------7--------|
|--7-9-10---10-9-7-|
|------------------|
|------------------| 3x
|------------------|
|------------------|

|--------------|
|--------------|
|--9---------6-|
|-------9------|
|--------------|
|--------------|


 ---------------
     Legend
 ---------------
h - hammer on
p - pull off
Login or Register to remove this ad.