Ads

Gato's Song (Chrono Trigger) Guitar Tab

Submitted: Feb 26, 2012 by The Ripper

4
Average: 4 (2 votes)
Download | Listen
Game: Chrono Trigger
Composer(s): Nobuo Uematsu, Yasunori Mitsuda, Noriko Matsueda
Style: Arrangement, Fingerstyle
Series: Chrono

AutoScroll: Slow | Medium | Fast
				Chrono Trigger
				  Gatos Song
				Yasunori Mitsuda
                       Tabbed by The Ripper February 26, 2012

          H   Q   Q         Q   Q   H          Q   E   E  Q    Q
   E||-----------------|-----------------|---------0---------------|
   B||----3---1--------|----1---1---3----|-----3-------3--1--------|
   G||------------2----|-----------------|---------------------2---|
   D||----0------------|------------0----|-----0---0---0--0--------|
   A||--------3---0----|----3---3--------|---------------------3---|
   E||-----------------|-----------------|-------------------------|

         Q   Q   H       H    Q    Q         H     Q    Q
     |---------------|-------------------|------------------|
     |---1---1-------|---1---------------|------------------|
     |-----------2---|--------2----0-----|----2----0----2---|
     |---------------|-------------0-----|---------0--------|
     |---3---3---0---|--------0----------|--------------0---|
     |---------------|---1---------3-----|----1----3--------|

         Q     Q   E   E   Q        Q    Q   H
     |-------------0-----------|----*----------------||
     |---1-----3-------3---1---|----3----3---3-------||
     |-------------------------|---------2---2------*||
     |---------0---0---0---0---|---------0---0------*||
     |-------------------------|----5----------------||
     |---1---------------------|----*----------------||
                                    *I use my middle 
                                     and pinky. You can play a
                                     open D Instead.

                               
                     Duration Legend
                     ---------------
                        W - whole
                        H - half
                        Q - quarter
                        E - 8th

                                     
Login or Register to remove this ad.