Ads

Frog's Theme (Chrono Trigger) Guitar Tab

Submitted: May 06, 2009 by TheDoomOfAllFires (Last updated: Feb 03, 2010)

4.875
Average: 4.9 (8 votes)
Download | Listen
Game: Chrono Trigger
Composer(s): Nobuo Uematsu, Yasunori Mitsuda, Noriko Matsueda
Style: Arrangement, Fingerstyle
Series: Chrono

AutoScroll: Slow | Medium | Fast
Chrono Trigger - Frog's Theme
Arranged by TheDoomOfAllFires; 05/06/2009

BPM=105
Standard Tuning


Hope you like it ! ^^




      |--3--|                     |--3--|            |--3--|   
      E  E  E  Q    Q    E.  S    E  E  E  Q    Q    E  E  E   
E||----------------------------|------------------------------|
B||----------------------0---1-|--0-----0---------------------|
G||*--2--0--2-------2----------|-----2-----0------------------|
D||*-----------2----2----------|-----------0------------------|
A||---0--------0---------------|----------------2----2--2--2--|
E||----------------------------|--3---------------------------|


  |--3--|                     |--3--|            |--3--|   
  E  E  E  Q    Q    E.  S    E  E  E  Q    Q    E  E  E   
---------------------------|------------------------------|
---------------------0---1-|--0--1--3--0------------------|
--2--0--2-------2----------|--0--------0------------------|
-----------3---------------|----------------0----0--0--0--|
-----------3---------------|------------------------------|
--1------------------------|--3---------------------------|


  |--3--|                     |--3--|            |--3--|   
  E  E  E  Q    Q    E.  S    E  E  E  Q    Q    E  E  E   
---------------------------|------------------------------|
---------------------0---1-|--0-----0---------------------|
--2--0--2-------2----------|-----2-----0------------------|
-----------2----2----------|-----------0------------------|
--0--------0---------------|----------------2----2--2--2--|
---------------------------|--3---------------------------|


  |--3--|                    |--3--|  |--3--|       |--3--|   
  E  E  E  Q    Q    Q       E  E  E  E  E  E  Q    E  E  E   
--------------------------|----------------------------------|
-----------0----1----0----|----------------------------------|
--2--0--2-------0---------|--2--0--2--2--0--2--2-------------|
---------------------0----|--2--------2--------2-------------|
--------------------------|--0--------0--------0----0--0--0--|
--1--------1----3---------|----------------------------------|


  |--3--|  |--3--|  |-3|             |--3--|  |--3--|             
  E  E  E  E  E  E  E  Q    E  E     E  E  E  E  E  E  Q    Q     
--0-----0--0--------0-------5-----|--3-----------------0---------|
--------------1--3----------------|--0--------0-------------1----|
--------------2-------------------|-----------0--------0----0----|
-----2-----------------2----------|-----0--0--0--0--0------------|
--0--------0--------0----------0--|------------------------------|
----------------------------------|--3-----------------3---------|


  |--3--|  |--3--|               |--3--|  |--3--|  |--3--|  |--3--|   
  E  E  E  E  E  E  Q    Q       E  E  E  E  E  E  E  E  E  E  E  E   
------------------------------|--------------------------0-----0--3--|
------------------------------|-----0--1--0--1--3--1--3-----3--------|
--2--------2-------------2----|--2-----------------2--------0--------|
------------------------------|--3-----------------------------------|
-----3--3--3--3--3------------|--------------------------------------|
--1--------1--------1---------|--1--------1--------3--------3--------|


  |--3--|  |--3--|  |--3--|          |--3--|  |--3--|  |--3--|  |--3--|   
  E  E  E  E  E  E  E  E  E  Q       E  E  E  E  E  E  E  E  E  E  E  E   
--0-----0--0--------0--------5----|--7-----------8--7--5--------3--------|
--------------1--3----------------|-----------0-----------------0--------|
--------------2-----------2-------|-----------0--------------------------|
-----2-----------------2----------|-----0--0--------------0--0-----------|
--0--------0--------0-------------|--------------------------------------|
----------------------------------|--3--------3--------3-----------3--3--|


                                      ^         
       |--3--|                                  
  Q    E  E  E  Q    Q       H        H         
--5-----------------------|--5--------7--------|
--------------------------|-----------0--------|
-------2--2--2-------2----|-----------0--------|
-------3--3--3------------|--------------------|
---------------------3----|--------------------|
--1-------------1---------|--1--------3--------|


  |--3--|  |--3--|  |--3--|  |--3-|     |--3-|  |--3--|  |--3--|        
  E  E  E  E  E  E  E  E  E  Q    E     Q    E  E  E  E  E  E  E  Q     
--8-----8--8--7--5--3--------0-------|--5----5--5--3--1--0-------------|
--------------------0--------0-------|-------------------1--1--0--1----|
--------------------0--------0-------|----------------------2--0--2----|
-----7-------------------------------|---------------------------------|
--0--------0-----------2--2----------|-------------------0--------0----|
--------------------3--------3----3--|--1-------1----------------------|


  |---3--|  |--3--|                     |--3--|               
  E   E  E  E  E  E   Q    Q       Q    E  E  E  Q    Q       
--8------8--8--7--8--10----7----|--7-------------5----------||
---------------------------0----|-------0--0--0-------------||
--------------------------------|-------2--2--2-------2----*||
-----10-------------------------|---------------------2----*||
--8---------8--------10---------|--0-------------0----------||
---------------------------3----|---------------------------||


                ^           
       |--3--|              
  Q    E  E  E  Q    Q      
--7-------------5---------||
-------0--0--0------------||
-------2--2--2--2---------||
----------------2---------||
--0-------------0---------||
--------------------------||




Duration Legend
---------------
W - whole
H - half
Q - quarter
E - 8th
S - 16th
T - 32nd
X - 64th
. - note dotted
|-n-|  - n-tuplets


Tablature Legend
----------------
L - tied note
x - dead note
g - grace note
(n) - ghost note
> - accentuded note
NH - natural harmonic
AH - artificial harmonic
TH - tapped harmonic
SH - semi harmonic
PH - pitch harmonic
h - hammer on
p - pull off
b - bend
br - bendRelease
pb - preBend
pbr - preBendRelease
brb - bendReleaseBend
\n/ - tremolo bar dip
\n - tremolo bar dive
-/n - tremolo bar Release up
/n\ - tremolo bar inverted dip
/n - tremolo bar return
-\n - tremolo bar Release down
S - shift slide
s - legato slide
/ -  slide into from below or out of upwards
\ -  slide into from above or out of downwards
~ - vibrato
W - wide vibrato
tr - trill
TP - tremolo picking
T - tapping
S - slap
P - pop
< - fade in
^ - brush up
v - brush down
Login or Register to remove this ad.

2 comments on Frog's Theme

As a member of the judging

As a member of the judging panel I had a closer look at this.
1st: I'm missing a few bars from the original song. Did you remove them on purpose?
2nd: second line, first bar:

  |--3--|            
  E  E  E  Q    Q    E.  S 
---------------------------|
---------------------0---1-|
--2--0--2-------2----------|
-----------3---------------|
-----------3---------------|
--1------------------------|

The bold chord sounds little off to me.
3rd: Some stretches (1st and 5th fret) make it impossible to keep the flow going. You could try to fix that with Dropped D Tuning, I think you should have a look at that.

Fantastic dude.

This is far better than the lonlonjp titled one. It's a lot more fun to play. Nice job dude. Gonna take a look at the rest of your tabs now.