Ads

Festival of Stars (Chrono Trigger) Guitar Tab

Submitted: Sep 09, 2013 by Colin_spade

5
Average: 5 (3 votes)
Download | Listen
Game: Chrono Trigger
Composer(s): Nobuo Uematsu, Yasunori Mitsuda, Noriko Matsueda
Style: Arrangement, Fingerstyle
Series: Chrono

AutoScroll: Slow | Medium | Fast
                                                                Yasunori Mitsuda
Track 1



     Q    Q    Q    Q       Q    E  E  Q    Q       Q    Q    E  E  Q     
E||-----------------0----|--3----2--0--2---------|-------0---------------|
B||--3---------3---------|------------------3----|--2---------3--2--3----|
G||-------2--------------|-----------------------|-----------------------|
D||--0-------------------|--0--------------------|--0--------------------|
A||------------0---------|-------------0---------|------------0----------|
D||----------------------|-----------------------|-----------------------|


  Q    Q    Q    Q       Q    Q    Q    Q       Q    E  E  Q    Q     
----------------------|----------------------|-----------------------|
----------------------|-----------------3----|--3----2--0------------|
--2-------------------|--0---------0---------|-------------2---------|
--0--------------4----|-------4----0---------|-------------2----4----|
-------4----2----0----|----------------------|--0--------------------|
----------------------|--5-------------------|-----------------------|


  Q    Q    Q    E  E     Q    Q    Q    Q         Q.     E  Q    E  E   
-----------------------|--0-------------------||---5------5-------3--2--|
-------3----3----2--3--|----------------------||------------------------|
--0--------------------|--2-------------------||*-----------------------|
------------0----------|----------------------||*-----------------------|
-----------------------|-------0----2----4----||-------------0----------|
--5--------------------|----------------------||---0--------------------|


  Q.     E  Q    Q       Q    Q    E  E  Q       Q    Q    Q    Q     
--0--------------0----|--2----3----2--0-------|----------------------|
---------3------------|------------------3----|----------------------|
----------------------|-----------------------|--2-------------------|
--0-------------------|--0--------------------|--0-------------------|
------------0---------|------------0----------|-------4----2----0----|
----------------------|-----------------------|----------------------|


  Q    E  E  Q    Q       Q    E  E  Q    Q       Q    Q    Q    E  E   
-----------------------|-----------------------|-----------------------|
------------------3----|--3----2--0------------|-------3----3----2--3--|
----------0--2---------|-------------2---------|--0--------------------|
-------4-----0---------|-------------2----4----|------------0----------|
-----------------------|--0--------------------|-----------------------|
--5--------------------|-----------------------|--5--------------------|


  Q    Q    Q    Q          Q    E   E  Q    Q       E   E  Q    Q    Q     
--0--------------------||-------------------------|------------------------|
-----------------------||--------3p--2--3----0----|--2p--0-----------------|
--2-------------------*||*------------------------|---------2----2---------|
----------------------*||*-------0------0----0----|---------2----2----2----|
-------0----2----4-----||--------2------2----2----|--0------4----4----4----|
-----------------------||---5---------------------|------------------------|


  Q    E   E  Q    Q       E   E  Q    Q    Q       Q    E  E  Q    Q     
------------------------|---------0----0---------|-----------------------|
-------3p--2--3----0----|--2h--3-----------------|-------3--2--3----0----|
------------------------|------------------------|-----------------------|
-------0------0----0----|---------2----2----2----|-------0-----0----0----|
-------2------2----2----|--0------4----4----4----|-------2-----2----2----|
--5---------------------|------------------------|--5--------------------|


  E   E  Q    Q    Q       Q    Q    Q    Q       E  E  E  E  Q    Q       
--3p--2--0----0---------|------------2---------|-------------------------||
-------------------3----|--2----3---------2----|-----0-----0-------------||
------------------------|----------------------|--2-----2-----2---------*||
------------------------|-------2----2----2----|------------------------*||
---------0----0----0----|--0----4----4----4----|--0----------------------||
--0---------------------|----------------------|--------5-----4----2-----||


  Q    E  E  Q    Q       Q    Q    Q    Q       Q    E  E  Q    Q     
--0----0-----0----2----|--3----2----0---------|--0----0-----0---------|
----------3------------|-----------------3----|----------3-------3----|
-------0-----0----0----|-------0----0----0----|-----------------------|
-------2-----2----2----|-------2----2----2----|-------2-----2----2----|
--3--------------------|--3-------------------|--0----4-----4----4----|
-----------------------|----------------------|-----------------------|


  Q    Q    Q    Q         Q    Q    Q    Q       Q    Q    Q    Q     
----------------------||---5-------------------|----------------------|
--2----0--------------||-----------------------|----------------------|
------------2---------||*----------------------|----------------------|
-------2----2----2----||*------------4---------|--4---------4---------|
--0----4----4----4----||--------0----5----0----|--5----0----5----0----|
----------------------||---0-------------------|----------------------|


  Q    Q    Q    Q       Q    Q    Q    Q       Q    Q    Q    Q     
-------5----3----2----|--L----2----0---------|-----------------0----|
----------------------|-----------------3----|--L----3--------------|
------------0---------|--0---------0---------|------------1---------|
------------0---------|--0---------0---------|------------2---------|
-------2---------2----|-------2---------2----|-------2---------2----|
--0-------------------|----------------------|--2-------------------|


  Q    Q    Q    Q       Q    Q    Q    Q       Q    Q    Q    Q       
--L----2---------2----|--L----0----0---------|-----------------------||
----------------------|-----------------0----|-----------------L-----||
----------------------|----------------------|----------------------*||
--2----4----5---------|----------------------|----------------------*||
----------------------|--0---------4----2----|--0--------------------||
----------------------|-------2--------------|-------5----4----2-----||


                         ^        ^                                
  Q    Q    Q    Q       H        H           Q    Q    Q    Q     
-------0----0---------|-----------0--------|----------------------|
------------2---------|--3--------2--------|--3---------3---------|
------------2---------|--4--------2--------|--2---------2---------|
-------2---------2----|--5-----------------|--4---------4---------|
--0-------------------|--------------------|----------------------|
----------------------|--------------------|--0---------0---------|


  Q    Q    Q    Q       Q    Q    Q    Q       Q    Q    Q    Q     
----------------------|----------------------|--3----2----0----2----|
--3---------3---------|--3---------3---------|--3-------------------|
--2---------2---------|--2---------2---------|--2-------------------|
--4---------4---------|--4---------4---------|--0-------------------|
-------0---------0----|----------------------|-------4----2----0----|
--0---------0---------|--0---------0---------|----------------------|


                              |---3---|                                    
  Q    Q    Q    Q       Q    E   E   E  Q    Q       Q    Q    Q    Q     
----------------------|----------------------------|----------------------|
-------3---------0----|--1----0h--1p--0------------|----------------------|
------------2---------|------------------2----0----|--L----0----2---------|
----------------------|----------------------------|-----------------4----|
----------------------|----------------------------|----------------------|
--0---------0---------|--0---------------0---------|--0---------0---------|


                                                     |---3---|             
  Q    Q    Q    Q       Q    Q    Q    Q       Q    E   E   E  Q    Q     
----------------------|----------------------|-----------------------3----|
----------------------|-------3---------0----|--1----0h--1p--0------------|
----------------------|------------2---------|------------------2---------|
--L-------------------|----------------------|----------------------------|
----------------------|----------------------|----------------------------|
--0---------0---------|--0---------0---------|--0---------------0---------|


  Q    Q    Q    Q       Q    Q    Q    Q       Q    Q    Q    Q     
-------2---------0----|--2-------------------|----------------------|
----------------------|----------------------|-------3---------0----|
----------------------|----------------------|------------2---------|
----------------------|--2----0--------------|----------------------|
----------------------|------------3----0----|----------------------|
--0---------0---------|----------------------|--0---------0---------|


       |---3---|                                                           
  Q    E   E   E  Q    Q       Q    Q    Q    Q       Q    Q    Q    Q     
----------------------------|----------------------|----------------------|
--1----0h--1p--0------------|----------------------|----------------------|
------------------2----0----|--L----0----2---------|----------------------|
----------------------------|-----------------4----|-------0--------------|
----------------------------|-----------------0----|--3----0----2----0----|
--0---------------0---------|--0---------0---------|----------------------|


                                                     |--3--|             
  Q    Q    Q    Q       Q    Q    Q    Q       Q    E  E  E  Q    Q     
----------------------|----------------------|--------------------------|
----------------------|------------0---------|--------------------------|
-----------------0----|--0----2---------0----|--2----0--2--0------------|
-------2----4---------|----------------------|----------------4----2----|
--3---------3---------|----------------------|--0-------------0---------|
----------------------|--5---------5----6----|---------------------2----|


  Q    Q    Q    Q      
----------------------||
--3----2----0---------||
-----------------2----||
----------------------||
-------0----2----4----||
----------------------||




Duration Legend
---------------
W - whole
H - half
Q - quarter
E - 8th
S - 16th
T - 32nd
X - 64th
. - note dotted
|-n-|  - n-tuplets


Tablature Legend
----------------
L - tied note
x - dead note
g - grace note
(n) - ghost note
> - accentuded note
NH - natural harmonic
AH - artificial harmonic
TH - tapped harmonic
SH - semi harmonic
PH - pitch harmonic
h - hammer on
p - pull off
b - bend
br - bendRelease
pb - preBend
pbr - preBendRelease
brb - bendReleaseBend
\n/ - tremolo bar dip
\n - tremolo bar dive
-/n - tremolo bar Release up
/n\ - tremolo bar inverted dip
/n - tremolo bar return
-\n - tremolo bar Release down
S - shift slide
s - legato slide
/ -  slide into from below or out of upwards
\ -  slide into from above or out of downwards
~ - vibrato
W - wide vibrato
tr - trill
TP - tremolo picking
T - tapping
S - slap
P - pop
< - fade in
^ - brush up
v - brush down
Login or Register to remove this ad.

1 comment on Festival of Stars

Nice work man!

5

Nice work man!