Factory (Chrono Trigger) Guitar Tab

Submitted: Jul 28, 2012 by hslesperance

5
Average: 5 (1 vote)
Download | Listen
Game: Chrono Trigger
Composer(s): Nobuo Uematsu, Yasunori Mitsuda, Noriko Matsueda
Style: 2 or more instruments, Transcription
Series: Chrono

This song is also called Remains of the Factory

AutoScroll: Slow | Medium | Fast
Remains of the Factory
Chrono Trigger
Composed by Yasunori Mitsuda
Tabbed by hslesperance
7/28/12

Standard Tuning


Guitar 1

e------------------------------------1----1--------
B---3--3------1--1--------4----4--4----------------
G--------------------------------------------------
D--------------------------------------------------
A--------------------------------------------------
E--------------------------------------------------

e------------------------------------1-------------
B---3--3------1--1--------4----4--4-----3----------
G--------------------------------------------------
D--------------------------------------------------
A--------------------------------------------------
E--------------------------------------------------


Guitar 2

e---3--------------------------------1-------------
B---3--------------------------------1-------------
G---2--------------------------------0-------------5x
D--------------------------------------------------
A--------------------------------------------------
E--------------------------------------------------

e---0----------------------------------------------
B---1--------------------1--------3----------------
G---0--------------------0--------2----------------
D------------------------2--------0----------------
A--------------------------------------------------
E--------------------------------------------------


Guitar 3

e--------------------------------------------------
B--------------------------------------------------
G--------------------------------------------------
D---------3-------------------------5-5-7-7--5-5---
A---5-3-5------------5-5--3-3--5-5-----------------
E--------------------------------------------------
Login or Register to remove this ad.