Epilogue ~ To Good Friends (Chrono Trigger) Guitar Tab

Submitted: Mar 04, 2017 by kpcart

5
Average: 5 (5 votes)
Download | Listen
Game: Chrono Trigger
Composer(s): Nobuo Uematsu, Yasunori Mitsuda, Noriko Matsueda
Style: Arrangement, Fingerstyle
Series: Chrono

AutoScroll: Slow | Medium | Fast
                        Epilogue - To Good Friends                            


                                                                                
(Capo 1)



     E     E  E  E  E  E  E     E  E  E  E  E  E     E  E  E  E  E  S  S  
E||-----|-----------0-----5--|--2--------------0--|-----------0----------|
B||-----|--3-----3-----------|-----------------0--|--3-----3--------0h-3-|
G||--2--|-----------0--------|-----------0--------|--2-------------------|
D||-----|-----4--------2-----|--0-----0-----4-----|-----4----------------|
A||-----|--5--------------0--|-----0-----------4--|--2-----0-----7-------|
D||-----|--------------------|--------------------|-----------6----------|


  E  E   E  E  E  E     E  S S E  E  E  E     E  E  E  E  E  E   
---------------------|-------5-5--5--3--2--|--3-----3--3--2--0--|
--3---------2-----0--|---------------4-----|--------------------|
---------------------|--2------------------|--------------------|
-----0h--2-----2-----|------------------4--|--------2-----------|
--0---------0--------|-----4------2--------|-----2-----0-----4--|
------------------5--|--4------------------|--2-----------------|


  E  E  E  E  E  E     E  E  E  E  E  E     E  E  E  E  E  S S  
--2-----2--0-----5--|-----------------2--|-------------------5-|
--------------------|--3-----3--2--------|--0-----0--------3---|
-----2--------2-----|-----2--------2-----|--------0--2---------|
--0-----0-----------|--------------------|-----0--------0------|
-----------4-----4--|--2-----2--0-----0--|---------------------|
--------------------|--------------------|--5--------4---------|


  E  E  E  E  E  E     E  E  E  E  E  E     Q    E  Q    E     Q    E  Q    E   
--5--3--2--------0--|--------------------|------------------|----------0----5--|
-----------3--------|--3--------3--------|--3---------------|--3----3----------|
--------------------|--------2--------2--|--2------------2--|--2-------2-------|
--------------2-----|-----5--------5-----|--0-------0-------|--4-------2-------|
-----2-----0-----4--|-----------------4--|-------0----------|--5-------0-------|
--2-----------------|--0-----------------|--0---------------|------------------|


  Q.     Q    E     Q    E  Q    S  S    Q.     Q    E     E.  S E  E  E  E   
--2-----------0--|----------0---------|-----------------|------5-5--5--3--2--|
-----------------|--3----3-------0h-3-|--3------2----0--|-----------4--------|
--2------2----0--|--2-----------------|--------------0--|--2--------------2--|
--0--------------|--------------------|--2--------------|--2--------4--------|
---------4-------|--2-----------------|--0--------------|--------------------|
-----------------|----------6---------|-----------------|--4-----------------|


  Q    E  E  E  E     Q    E  Q    E     Q    E  Q    E     Q    E  Q    S S  
--3----3--3--2--0--|--2----2--0----5--|---------------2--|-----------------5-|
--0----------------|--3---------------|--3----3--2-------|--0----0-------3---|
--0-------0--2--0--|--2-------2-------|--2-------2-------|--0-------2--------|
--2----------------|--0---------------|----------2-------|----------2--------|
----------0--------|----------4-------|--2-------0-------|-------------------|
-------------------|------------------|------------------|--5-------4--------|


  E  E  E  Q    E     Q.     Q    E     Q.     E  E  E   
--5--3--2-------0--|-----------------|---------------0--|
-----------3----2--|--3------L-------|------------3-----|
-----------0-------|--2------L----0--|------------------|
--0----------------|--4------L-------|--0---------------|
-----------0-------|--5------L-------|------------------|
--2----------------|-----------------|--0---------------|


    E  E  E  E  E   E  E  E     E  S S E  E  E  E  E  E   
|---2--------5--3---------2--|--0---------0-----------2--|
|---2-----------3------------|--2----3-------3--2--3-----|
|*--2-----------0------0-----|--2------2-----------4-----|
|*--0-----0-----0h--2--------|-----2------------4--------|
|------0---------------------|--0------------2-----------|
|----------------------------|---------------------------|


  E  E  E  E  E  E  E  E     E  S S E  E  E  E  E  E   
--7--------7--5--------5--|--5----3----2--0--------0--|
--7-----------5-----------|---------------2-----3-----|
--------------------6-----|---------------2-----2-----|
--------7-----------4-----|---------2--------2--------|
-----5-----------4--------|-----2---------0-----------|
--5-----------4-----------|--2------------------------|


  E  E  E  E  E   E  E  E     E  S S E  E  E  E  E  E   
--2--------5--3---------2--|--0---------0-----------2--|
--2-----------3------------|--2----3-------3--2--3-----|
--2-----------0------0-----|--2------2-----------4-----|
--0-----0-----0h--2--------|-----2------------4--------|
-----0---------------------|--0------------2-----------|
---------------------------|---------------------------|


  E  E  E  E  E  E  E  E     E  E  E  E  E  E  E  E       W                  
--7--------7--5--------5--|--5-----3--2--0--------0---||--2----------------||
--7-----------5-----------|--------------2-----3------||--3----------------||
--------------------6-----|--------------2-----2-----*||--2----------------||
--------7-----------4-----|--------2--------2--------*||--0----------------||
-----5-----------4--------|-----2--------0------------||--0----------------||
--5-----------4-----------|--2------------------------||-------------------||




Duration Legend
---------------
W - whole
H - half
Q - quarter
E - 8th
S - 16th
T - 32nd
X - 64th
. - note dotted
|-n-|  - n-tuplets


Tablature Legend
----------------
L - tied note
x - dead note
g - grace note
(n) - ghost note
> - accentuded note
NH - natural harmonic
AH - artificial harmonic
TH - tapped harmonic
SH - semi harmonic
PH - pitch harmonic
h - hammer on
p - pull off
b - bend
br - bendRelease
pb - preBend
pbr - preBendRelease
brb - bendReleaseBend
\n/ - tremolo bar dip
\n - tremolo bar dive
-/n - tremolo bar Release up
/n\ - tremolo bar inverted dip
/n - tremolo bar return
-\n - tremolo bar Release down
S - shift slide
s - legato slide
/ -  slide into from below or out of upwards
\ -  slide into from above or out of downwards
~ - vibrato
W - wide vibrato
tr - trill
TP - tremolo picking
T - tapping
S - slap
P - pop
< - fade in
^ - brush up
v - brush down
Login or Register to remove this ad.

1 comment on Epilogue ~ To Good Friends

I love this so much =)

I love this so much =)