Epilogue ~ To Good Friends (Chrono Trigger) Guitar Tab

Submitted: Sep 07, 2013 by Colin_spade

5
Average: 5 (2 votes)
Download | Listen
Game: Chrono Trigger
Composer(s): Nobuo Uematsu, Yasunori Mitsuda, Noriko Matsueda
Style: Arrangement, Fingerstyle
Series: Chrono

AutoScroll: Slow | Medium | Fast
Epilogue - To Good Friends                            


Track 1 (Capo 1)
     E     E  E  E  E  E  E     E  E  E  E  E  E     E  E  E  E  E  S  S  
E||-----|-----------0-----5--|--2--------------0--|-----------0----------|
B||-----|--3-----3-----------|-----------------2--|--3-----3--------0h-3-|
G||--2--|--------2--0-----2--|-----------0-----4--|--2-------------------|
D||-----|--0--4--------2-----|--0-----0-----4-----|--4-----------2-------|
A||-----|--------------------|-----0-----------4--|--2--4--0-------------|
D||-----|--------------------|--------------------|-----------6-----6----|


  E  E  E  E  E  E     E  S S E  E  E  E     E  E  E  E  E  E   
--------------------|-------5-5--5--3--2--|--3-----3--3--2--0--|
--3--------2-----0--|---------------------|--------------------|
--------------------|--2------------------|--------------------|
-----0--2-----------|---------2-----1--4--|--2-----2-----------|
--0--------0--2-----|-----4------2--------|-----2-----0-----4--|
-----------------5--|--4------------------|--------------------|


  E  E  E  E  E  E     E  E  E  E  E  E     E  E  E  E  E  S S  
--2-----2--0-----5--|-----------------2--|-------------------5-|
--------------------|--3-----3--2--------|--0-----0--------3---|
-----2--------2-----|-----2--------2-----|--------0--2---------|
--0-----0-----------|--------------------|-----0--------0------|
-----------4-----4--|--2-----2--0-----0--|---------------------|
--------------------|--------------------|--5--------4-----4---|


                                            ^                  ^                
  E  E  E  E  E  E     E  E  E  E  E  E     Q    E  Q    E     Q    E  Q    E   
--5--3--2--------0--|--------------------|------------------|----------0----5--|
-----------3--------|--3--------3--------|--3---------------|--3----3----------|
--------------------|-----0--2-----0--2--|--2------------2--|--2---------------|
--------0-----2-----|--0-----------------|--4---------------|--4-------2-------|
-----2-----0-----4--|-----------------4--|--5----0----------|--5-------2-------|
--2-----------------|--------------------|----------0-------|------------------|


  ^                 ^                                                         
  Q.     Q    E     Q     E  Q    S S    Q.     Q    E     E.  S E  E  E  E   
--2-----------0--|-----------0--------|-----------------|------5-5--5--3--2--|
-----------------|--3-------------0---|--------------0--|--------------------|
--2------2----0--|--2S----7---------7-|--7------6-------|--2-----------0--2--|
--4--------------|--------------------|-----------------|--2--------4--------|
--5------4-------|--2--------7--------|--7--------------|-----------6--------|
-----------------|-----------6--------|--7-----------5--|--4-----------------|


          ^           ^                  ^       ^                            
  Q    E  E  E  E     Q    E  Q    E     Q    E  Q    E     Q    E  Q    S S  
--3----3--3--2--0--|--2----2--0----5--|---------------2--|-----------------5-|
-------------------|--2---------------|--3----3--2-------|--0----0-------3---|
--0-------0--2--0--|--2-------2-------|--2-------2-------|--0-------2--------|
--2----------------|--0---------------|----------2-------|----------2--------|
----------0--------|----------4-------|--2-------0-------|-------------------|
-------------------|------------------|------------------|--5-------4--------|


  E  E  E  Q    E     Q.     Q    E     Q.     E  E  E   
--5--3--2-------0--|-----------------|---------------0--|
-----------3----2--|--3------L-------|------------3-----|
-----------0-------|--2------L----0--|------------------|
--0----------------|--4------L-------|--0---------------|
-----------0-------|--5------L-------|------------------|
--2----------------|-----------------|--0---------------|


    ^                                                    
    E  E  E  E  E  E  E  E     E  S S E  E  E  E  E  E   
|---2--------5--3--------2--|--0---------0-----------2--|
|---2-----------3-----------|--2----3-------3--2--3-----|
|*--2-----------------------|--2------2-----------4-----|
|*--------0--------0--2-----|-----2------------4--------|
|------0--------------------|--0------------2-----------|
|---0-----------5-----------|---------------------------|


  E  E  E  E  E  E  E  E     E  S S E  E  E  E  E  E   
--7--------7--5--------5--|--5----3----2--0--------0--|
--7-----------5-----------|---------------2-----3-----|
--------------------6-----|---------------2-----2-----|
-----0--7-----------4-----|---------4--------2--------|
-----------------4--------|-----2---------0-----------|
--5-----------4-----------|--2------------------------|


  ^                                                    
  E  E  E  E  E  E  E  E     E  S S E  E  E  E  E  E   
--2--------5--3--------2--|--0---------0-----------2--|
--2-----------3-----------|--2----3-------3--2--3-----|
--2-----------------------|--2------2-----------4-----|
--------0--------0--2-----|-----2------------4--------|
-----0--------------------|--0------------2-----------|
--0-----------5-----------|---------------------------|


                                                          ^                  
  E  E  E  E  E  E  E  E     E  E  E  E  E  E  E  E       W                  
--7--------7--5--------5--|--5-----3--2--0--------0---||--2----------------||
--7-----------5-----------|--------------2-----3------||--3----------------||
--------------------6-----|--------------2-----2-----*||--2----------------||
-----0--7-----------4-----|--------4--------2--------*||--0----------------||
-----------------4--------|-----2--------0------------||--0----------------||
--5-----------4-----------|--2------------------------||--0----------------||




Duration Legend
---------------
W - whole
H - half
Q - quarter
E - 8th
S - 16th
T - 32nd
X - 64th
. - note dotted
|-n-|  - n-tuplets


Tablature Legend
----------------
L - tied note
x - dead note
g - grace note
(n) - ghost note
> - accentuded note
NH - natural harmonic
AH - artificial harmonic
TH - tapped harmonic
SH - semi harmonic
PH - pitch harmonic
h - hammer on
p - pull off
b - bend
br - bendRelease
pb - preBend
pbr - preBendRelease
brb - bendReleaseBend
\n/ - tremolo bar dip
\n - tremolo bar dive
-/n - tremolo bar Release up
/n\ - tremolo bar inverted dip
/n - tremolo bar return
-\n - tremolo bar Release down
S - shift slide
s - legato slide
/ -  slide into from below or out of upwards
\ -  slide into from above or out of downwards
~ - vibrato
W - wide vibrato
tr - trill
TP - tremolo picking
T - tapping
S - slap
P - pop
< - fade in
^ - brush up
v - brush down
Login or Register to remove this ad.

1 comment on Epilogue ~ To Good Friends

Top tier work, as always.

5

Top tier work, as always.