Epilogue ~ To Good Friends (Chrono Trigger) Guitar Tab

Submitted: Aug 02, 2012 by hslesperance

5
Average: 5 (1 vote)
Download | Listen
Game: Chrono Trigger
Composer(s): Nobuo Uematsu, Yasunori Mitsuda, Noriko Matsueda
Style: 2 or more instruments, Transcription
Series: Chrono

AutoScroll: Slow | Medium | Fast
Epilogue ~ To Good Friends
Chrono Trigger
Composed by Yasunori Mitsuda
Tabbed by hsleperance
8/2/12

Guitar 1 - Standard Tuning
Guitar 2 - Drop D Tuning (DADGBe)


This is only the part near the end since the first half is
"Far Off Promise", which we already have tabs for.


  Guitar 1

  Q  Q      Q.     E   Q.     E   E.   E.   E    E  E  E E
|-------||---------6-|----------|-------------|------------|
|----6--||o-8--------|-9------8-|-6---------6-|----------8-|
|-8-----||-----------|----------|------8------|--8--7--8---|
|-------||-----------|----------|-------------|------------|
|-------||o----------|----------|-------------|------------|
|-------||-----------|----------|-------------|------------|
|
| Guitar 2
| H         E  E Q     E  E Q     E  E    Q      E  E  Q
|-------||-----------|----------|-------------|------------|
|-------||o----------|----------|-------------|------------|
|-------||-----------|----------|-------------|------------|
|-------||-------1---|------8---|---------8---|-------10---|
|-------||o----1-----|----6-----|----8--------|----10------|
|-------||--1--------|-6--------|-8-----------|-10---------|


                                    1.,2.,3.    4.
  Q.     E   Q   E E   E.   E.   E   Q   E E  3x Q   E E   H
|-8------8-|-6-----6-|-6-----------|----------||---------|------*|
|----------|---------|------9----8-|-6-----6-o||-6-------|------*|
|----------|-----8---|-------------|-----8----||-----8-7-|-8----*|
|----------|---------|-------------|----------||---------|-8----*|
|----------|---------|-------------|---------o||---------|-6----*|
|----------|---------|-------------|----------||---------|------*|
|
| E  E Q     E E Q     E  E    Q     E E Q    3x E E Q     H
|----------|---------|-------------|----------||---------|------*|
|----------|---------|-------------|---------o||---------|------*|
|----------|---------|-------------|-----3----||-----3---|------*|
|------8---|-----5---|---------5---|---3------||---3-----|------*|
|----6-----|---5-----|----3--------|-1-------o||-1-------|------*|
|-6--------|-5-------|-3-----------|----------||---------|-1----*|

H - half
Q - quarter
E - 8th
+ - note tied to previous
. - note dotted
Login or Register to remove this ad.

3 comments on Epilogue ~ To Good Friends

I take it you finally played

5

I take it you finally played this game?

Yeah, the first JRPG I

Yeah, the first JRPG I finished. The music works much better in the context of the game like Mitsuda said. I never really liked it that much before playing.

Good. It's my second favorite

Good. It's my second favorite only behind FFVI.