End of Time (Chrono Trigger) Guitar Tab

Submitted: Aug 18, 2011 by N0Stars (Last updated: Dec 31, 2012)

5
Average: 5 (3 votes)
Download | Listen
Game: Chrono Trigger
Composer(s): Nobuo Uematsu, Yasunori Mitsuda, Noriko Matsueda
Style: Arrangement, Fingerstyle, Natural harmonics
Series: Chrono

AutoScroll: Slow | Medium | Fast
#----------------------------------PLEASE NOTE---------------------------------#
#This file is the author's own work and represents their interpretation of the #
#song. You may only use this file for private study, scholarship, or research. #
#------------------------------------------------------------------------------##

Chrono Trigger - End of Time 

Composed by Yasunori Mitsuda

Arranged by N0Stars

Gtr I (E A D G B E) - 'Untitled'

  Gtr I
   H.         H.         H.         H.
|-10-------|-12-------|-10-------|-12-------|
|-10-------|-12-------|-10-------|-12-------|
|-10-------|-12-------|-10-------|-12-------|
|----------|----------|----------|----------|
|-10-------|-12-------|-10-------|-12-------|
|----------|----------|----------|----------|


   H.         H.        H.        +H.
|-10-------|-12-------|-7-------|-(7)----|
|-10-------|-12-------|-7-------|-(7)----|
|-10-------|-12-------|-8-------|-(8)----|
|----------|----------|---------|--------|
|-10-------|-12-------|---------|--------|
|----------|----------|-7-------|-(7)----|


   Q   Q    Q     H     Q     Q   Q    Q     H     Q
|-10--<7>------|-12--------|-10--<7>------|-12--------|
|----------10--|-12----10--|----------10--|-12----10--|
|-10-----------|-12--------|-10-----------|-12--------|
|--------------|-----------|--------------|-----------|
|-10-----------|-12--------|-10-----------|-12--------|
|--------------|-----------|--------------|-----------|


   Q   Q    Q     Q   Q    Q     H.        +H.
|-10--<7>------|-12------<12>--|-7-------|-(7)----|
|----------10--|-12--10--------|-7-------|-(7)----|
|-10-----------|-12------------|-8-------|-(8)----|
|--------------|---------------|---------|--------|
|-10-----------|-12------------|---------|--------|
|--------------|---------------|-7-------|-(7)----|


   Q   E   E Q     q   E  E   Q      Q   E   E Q
|-10--<7>----7--|-12--------<12>--|-10--<7>----7--|
|---------10----|-12--12-10-------|---------10----|
|-10------------|-12--------------|-10------------|
|---------------|-----------------|---------------|
|-10------------|-12--------------|-10------------|
|---------------|-----------------|---------------|


   Q   E  E   Q      Q   E   E Q     H     q
|-12--------<12>--|-10--<7>----7--|-12----12--|
|-12--12-10-------|---------10----|-12----12--|
|-12--------------|-10------------|-12----12--|
|-----------------|---------------|-----------|
|-12--------------|-10------------|-12----12--|
|-----------------|---------------|-----------|


  H.        E E H      E E H      Q  Q  Q    Q  Q  Q    Q  Q  Q    Q  Q  Q
|-7-------|----------|----------|----------|----------|----------|------------|
|-7-------|----------|-----7----|----------|----------|----------|------------|
|-8-------|-----8----|----------|----0--0--|----0--0--|----0--0--|----0--0----|
|-9-------|-9-7------|-9-7------|----9--9--|----9--9--|----9--9--|----9--9----|
|-9-------|----------|----------|----9--9--|----9--9--|----9--9--|----9--9----|
|-7-------|----------|----------|-0--------|-0--------|-0--------|-0----------|


  Q  Q  Q     Q  E E  Q    Q  E  E Q
|-7-----9--|-10----9-10--|-7-------7--|
|----------|-------------|------10----|
|----0--0--|-----0----0--|----0----0--|
|----9--9--|-----9----9--|----9----9--|
|----9--9--|-----9----9--|----9----9--|
|-0--------|--0----------|-0----------|


  Q  Q  Q     Q  Q   Q     Q   S S  E  Q
|-0--------|-----0---0--|-10----------15----|
|----------|--------10--|-------------12----|
|----0--0--|-10--9--10--|-----10-9-10--0----|
|----9--9--|------------|-------------------|
|----9--9--|------------|-------------------|
|-0--------|-10---------|-10----------------|


   Q  Q  Q     Q   Q   Q    Q  Q  Q     Q  E E  Q    Q  E  E Q    Q  Q  Q
|-12--------|-12--13--12--|-7-----9--|-10----9-10--|-7-------7--|-0----------|
|-----------|-------------|----------|-------------|------10----|------------|
|-----0--0--|------0---0--|----0--0--|-----0----0--|----0----0--|----0--0----|
|-----9--9--|------9---9--|----9--9--|-----9----9--|----9----9--|----9--9----|
|-----9--9--|------9---9--|----9--9--|-----9----9--|----9----9--|----9--9----|
|--0--------|--0----------|-0--------|--0----------|-0----------|-0----------|


   Q  Q   Q     Q   S S  E  Q     Q  Q  Q
|-----0---0--|-10----------15--|-12--------|
|--------10--|-------------12--|-----------|
|-10--9--10--|-----10-9-10--0--|-----0--0--|
|------------|-----------------|-----9--9--|
|------------|-----------------|-----9--9--|
|-10---------|-10--------------|--0--------|


  Q  Q  Q     Q  Q   Q    Q  Q   Q    Q  E E Q
|-0--------|------------|-8-----10--|-5----3-5---|
|----6--8--|-10-----11--|-----------|----4---4---|
|----0--0--|-----8---8--|----8---8--|----5---5---|
|----9--9--|-----0---0--|----0---0--|------------|
|----9--9--|------------|-----------|-3----------|
|-0--------|--8---------|-8---------|------------|


  Q  Q  Q    Q  Q  Q    Q  Q  Q    Q  Q  Q    H.        +H.
|-------3--|-0--------|----------|-2--------|---------|--------|
|-3-----4--|----5--5--|----5--5--|----5--5--|-4-------|-(4)----|
|----5--5--|----2--2--|----2--2--|----------|-4-------|-(4)----|
|----------|----2--2--|----2--2--|----4--4--|-4-------|-(4)----|
|-3--------|-0--------|-0--------|-2--------|-2-------|-(2)----|
|----------|----------|----------|----------|---------|--------|


   H.         H.         H.         H.
|-10-------|-12-------|-10-------|-12-------|
|-10-------|-12-------|-10-------|-12-------|
|-10-------|-12-------|-10-------|-12-------|
|----------|----------|----------|----------|
|-10-------|-12-------|-10-------|-12-------|
|----------|----------|----------|----------|


   H.         H.        H.        +H.
|-10-------|-12-------|-7-------|-(7)----|
|-10-------|-12-------|-7-------|-(7)----|
|-10-------|-12-------|-8-------|-(8)----|
|----------|----------|---------|--------|
|-10-------|-12-------|---------|--------|
|----------|----------|-7-------|-(7)----|


   Q   Q    Q     H     Q     Q   Q    Q     H     Q
|-10--<7>------|-12--------|-10--<7>------|-12--------|
|----------10--|-12----10--|----------10--|-12----10--|
|-10-----------|-12--------|-10-----------|-12--------|
|--------------|-----------|--------------|-----------|
|-10-----------|-12--------|-10-----------|-12--------|
|--------------|-----------|--------------|-----------|


   Q   Q    Q     Q   Q    Q     H.        +H.
|-10--<7>------|-12------<12>--|-7-------|-(7)----|
|----------10--|-12--10--------|-7-------|-(7)----|
|-10-----------|-12------------|-8-------|-(8)----|
|--------------|---------------|---------|--------|
|-10-----------|-12------------|---------|--------|
|--------------|---------------|-7-------|-(7)----|


   Q   E   E Q     q   E  E   Q      Q   E   E Q
|-10--<7>----7--|-12--------<12>--|-10--<7>----7--|
|---------10----|-12--12-10-------|---------10----|
|-10------------|-12--------------|-10------------|
|---------------|-----------------|---------------|
|-10------------|-12--------------|-10------------|
|---------------|-----------------|---------------|


   Q   E  E   Q      Q   E   E Q     H     q
|-12--------<12>--|-10--<7>----7--|-12----12--|
|-12--12-10-------|---------10----|-12----12--|
|-12--------------|-10------------|-12----12--|
|-----------------|---------------|-----------|
|-12--------------|-10------------|-12----12--|
|-----------------|---------------|-----------|


  H.        E E H      E E H      E E E E E E
|-7-------|----------|----------|-------------|
|-7-------|----------|-----7----|-------------|
|-8-------|-----8----|----------|-----0---0---|
|-9-------|-9-7------|-9-7------|-------4---4-|
|-9-------|----------|----------|---2---------|
|-7-------|----------|----------|-0-----------|


  E E E E E E   E E E E E E   E E E E E E
|-------------|-------------|---------------|
|-------------|-------------|---------------|
|-----0---0---|-----0---0---|-----0---0-----|
|-------4---4-|-------4---4-|-------4-------|
|---2---------|---2---------|---2-------9---|
|-0-----------|-0-----------|-0-------------|


  E E E E E E    E E  E E  E E   E E E  E E E   E E E E E E
|-7---7---9---|-10---10-9-10---|-7---7----7---|-0--------------|
|---8---8---8-|----8---------7-|-0-8---10-0-8-|-------0--------|
|-9---0---0---|--7----0----0---|-----0--------|---------0------|
|-------------|----------------|--------------|-----4----------|
|-----9---9---|-------9----9---|-----9--------|---2-------9----|
|-0-----------|--0-------------|-0--------0---|-0--------------|


   E E  E E  E E    E E  E  E  Q     E E E E E E    E E  E E  E E
|----0----0----0-|-10---10----15--|-12-----------|-12---13---12------|
|-----------10---|----8----11-12--|------0---0---|-------------------|
|-10---10--------|-------------0--|----0---0---0-|----0----0----0----|
|----------------|------12--------|--------------|-------------------|
|----------------|----------------|----------9---|-------9----9------|
|-10-------------|-10-------------|--0---7-------|--0----------------|


  E E E E E E    E E  E E  E E   E E E  E E E   E E E E E E
|-7---7---9---|-10---10-9-10---|-7---7----7---|-0--------------|
|-8-8---8---8-|----8---------7-|-0-8---10-0-8-|-------0--------|
|-9---0---0---|--7----0----0---|-----0--------|---------0------|
|-------------|----------------|--------------|-----4----------|
|-----9---9---|-------9----9---|-----9----9---|---2-------9----|
|-0-----------|--0-------------|-0------------|-0--------------|


   E E  E E  E E    E E  E  E  Q     E E E E E E
|----0----0----0-|-10---10----15--|-12-----------|
|-----------10---|----8----11-12--|------0---0---|
|-10---10--------|-------------0--|----0---0---0-|
|----------------|------12--------|--------------|
|----------------|----------------|----------9---|
|-10-------------|-10-------------|--0---7-------|


  E E E E E E    E E  E E  E E   E E E E  E E   E E E E E E
|-0-----------|----------------|-8---8---10---|-5---3---5-----|
|-----6---8---|-10---10---11---|--------------|---4---4---4---|
|---0---0---0-|----8----8----8-|---8---8----8-|-----5---5-----|
|-------------|------------0---|----------0---|---------------|
|-----9---9---|----------------|--------------|-3-------------|
|-0-----------|--8-------------|-8------------|---------------|


  Q  Q  Q    E E E E E E   E E E E E E   Q  Q  Q     H.         +H.
|-------3--|-0-----------|-0-----------|-2-----2--|-<7>------|-(<7>)----*|
|-3-----4--|-----5---5---|-----5---5---|----5-----|-<7>------|-(<7>)----*|
|----5--5--|---2---2---2-|---2---2---2-|-------4--|--8-------|--(8)-----*|
|----------|-----2---2---|-----2---2---|----4-----|----------|----------*|
|-3--------|-0-----------|-0-----------|-2--------|----------|----------*|
|----------|-------------|-------------|----------|-<7>------|-(<7>)----*|


Duration Legend
---------------
W - whole; H - half; Q - quarter; E - 8th; S - 16th; T - 32nd; X - 64th; a - acciaccatura
+ - note tied to previous; . - note dotted; .. - note double dotted
Uncapitalized letters represent notes that are staccato (1/2 duration)
Irregular groupings are notated above the duration line
Duration letters will always appear directly above the note/fret number it represents the
duration for.  Duration letters with no fret number below them represent rests.  Multi-
bar rests are notated in the form Wxn, where n is the number of bars to rest for.  Low
melody durations appear below the staff

Tablature Legend
----------------
 h   - hammer-on
 p   - pull-off
 b   - bend
 pb  - pre-bend
 r   - bend release (if no number after the r, then release immediately)
 /\  - slide into or out of (from/to "nowhere")
 s   - legato slide
 S   - shift slide
  - natural harmonic
[n]  - artificial harmonic
n(n) - tapped harmonic
 ~   - vibrato
 tr  - trill
 T   - tap
 TP  - trem. picking
 PM  - palm muting
\n/  - tremolo bar dip; n = amount to dip
 \n  - tremolo bar down
 n/  - tremolo bar up
/n\  - tremolo bar inverted dip
 =   - hold bend; also acts as connecting device for hammers/pulls
 <>  - volume swell (louder/softer)
 x   - on rhythm slash represents muted slash
 o   - on rhythm slash represents single note slash

Misc Legend
-----------
 |  - bar
||  - double bar
||o - repeat start
o|| - repeat end
*|  - double bar (ending)
 :  - bar (freetime)
 $  - Segno
 &  - Coda
Tempo markers -  = BPM(8/16=s8/s16), where s8 = swing 8ths, s16 = swing 16ths


***************************************************************************************
* Generated using Power Tab Editor by Brad Larsen - http://powertab.guitarnetwork.org *
***************************************************************************************
Login or Register to remove this ad.

3 comments on End of Time

lovely ^^

5

lovely ^^

Rough to play but pretty good

5

Rough to play but pretty good sounding

Thanks. I agree, this one

Thanks. I agree, this one takes some practice before it can be played smoothly. It probably doesn't help that the measure bars are missing. I'll post an updated version soon.