Delightful Spekkio (Chrono Trigger) Guitar Tab

Submitted: Jan 16, 2013 by Solid Snake (Last updated: Jan 17, 2014)

0
Download | Listen
Game: Chrono Trigger
Composer(s): Nobuo Uematsu, Yasunori Mitsuda, Noriko Matsueda
Style: 2 or more instruments, Alternate picking, Transcription
Series: Chrono

AutoScroll: Slow | Medium | Fast
Delightful Spekkio
Chrono Trigger
Yasunori Mitsuda
16/01/2013

[Guitar]

E|-5--5-(5)-5--5-(5)-5-5-6--6-(6)-6--6-(6)-6-6-------| 
B|-6--6-(6)-6--6-(6)-6-6-8--8-(8)-8--8-(8)-8-8-------|
G|-5--5-(5)-5--5-(5)-5-5-7--7-(7)-7--7-(7)-7-7-------| 
D|---------------------------------------------------| 
A|---------------------------------------------------| 
E|---------------------------------------------------|

[Flute]

E|----13--------10-----------------------------------| 
B|--------13-10-----13-11-10--11p10------------------|
G|-10-------------------------------10-12------------| 
D|---------------------------------------------------| 
A|---------------------------------------------------| 
E|---------------------------------------------------|

E|----13--------10-----------------------------------| 
B|--------13-10-----13-11-10--11p10------------------|
G|-10-------------------------------12-10------------| 
D|---------------------------------------------------| 
A|---------------------------------------------------| 
E|---------------------------------------------------|

[Xylophone]

E|----------------------------13--13----13-15--------| 
B|-13--15--13-----------13-15--------15--------------|
G|------------15--14-15------------------------------| 
D|---------------------------------------------------| 
A|---------------------------------------------------| 
E|---------------------------------------------------|

E|-17-13-15----13-13----13-15-17-20-18-17-15-13------| 
B|----------15-------15------------------------------|
G|---------------------------------------------------| 
D|---------------------------------------------------| 
A|---------------------------------------------------| 
E|---------------------------------------------------|

Thanks to auriplane for feedback and corrections.
Login or Register to remove this ad.