Login or Register to remove this ad.

The Day The World Revived (Chrono Trigger) Guitar Tab

Submitted: Feb 09, 2012 by Kabukibear (Last updated: Feb 10, 2012)

5
Average: 5 (13 votes)
Download | Listen
Game: Chrono Trigger
Composer(s): Nobuo Uematsu, Yasunori Mitsuda, Noriko Matsueda
Style: Arrangement, Fingerstyle, Natural harmonics, Percussion
Series: Chrono

This song is also called The Day The World Died

AutoScroll: Slow | Medium | Fast
The Day The World Revived                             
~Chrono Trigger~
Composed by: Yasunori Mitsuda
Arranged by: Justin Lincoln

Drop D Tuning
           >           >              >           >        
     E.  S E  E  E  E  E  E     E.  S E  E  E  E  E    E   
E||--------------------------|----------------------------|
B||--------------------------|----------------------------|
G||--------------------------|----------------------------|
D||------0----------0--3--0--|------0----------0--L-------|
A||--0---0----0--3-----------|------0----0--3--L-----2g3--|
D||--0-----x-----------x-----|--0-----x-----------x--2g3--|

                           1st Ending ------------------,
        >           >              >            >        
  E.  S E  E  E  E  E  E     E.  S E  E    Q    E  E     
--------------------------|----------------------------||
--------------------------|----------------------------||
--------------------------|---------------------------*||
------0----------0--3--0--|------0-------3g5-------3--*||
--0---0----0--3-----------|------0----0--3g5-------3---||
--0-----x-----------x-----|--0-----x-----3g5----x------||

2nd Ending ----------------------,
        >               >             >     >           >      
  E.  S E  E  S  S S  S S S  S S      E.  S E  E  E  E  E  E   
---------------------------------||---------------------------|
---------------------------------||---3-----------------------|
--------------2p-0---------------||*--------------------------|
------0------------0h-3--------0-||*------0----------0--3--0--|
------0----0--------------0h-3-L-||---0---0----0--3-----------|
--0-----x-----0---------x--------||---0-----x-----------x-----|


  >     >           >          >     >           >      
  E.  S E  E  E  E  E    E     E.  S E  E  E  E  E  E   
----------------------------|--------------------------|
----------------------------|--1-----------------------|
--2-------------------------|--------------------------|
------0----------0--L-------|------0----------0--3--0--|
------0----0--3--L-----2g3--|--0---0----0--3-----------|
--0-----x-----------x--2g3--|--0-----x-----------x-----|


        >            >        >     >           >      
  E.  S E  E    Q    E  E     E.  S E  E  E  E  E  E   
---------------------------|--------------------------|
---------------------------|--3-----------------------|
---------------------------|--------------------------|
------0-------3g5-------3--|------0----------0--3--0--|
------0----0--3g5-------3--|--0---0----0--3-----------|
--0-----x-----3g5----x-----|--0-----x-----------x-----|


  >     >     >     >          >     >           >      
  E.  S E  E  E  E  E    E     E.  S E  E  E  E  E  E   
--------------0-------------|--------------------------|
--3-------------------------|--------------------------|
----------------------------|--2-----------------------|
------0----------0--L-------|------0----------0--3--0--|
------0----0--3--L-----2g3--|--0---0----0--3-----------|
--0-----x-----------x--2g3--|--0-----x-----------x-----|

 1st, 3rd Ending ----------------,  2nd Ending -----------
        >               >                   >           >      
  E.  S E  E  S  S S  S S S  S S      E.  S E  E  E  E  E  E   
----------------------------------||--------------------------|
----------------------------------||-----------------------0--|
--------------2p-0---------------*||--------------------2--2--|
------0------------0h-3--------0-*||------0----------0--3-----|
------0----0--------------0h-3-L--||------0----0--3-----------|
--0-----x-----0---------x---------||--0-----x-----0-----x-----|


  >     >           >        >     >               >          
  E.  S E  E  E  E  E  E     E.  S E  E  S  S S  S S S S  S   
--------------------------|----------------------------------|
--1-----------------------|--0-------------------------------|
--2---2----0-----0-----0--|--L---0----0----------------------|
--0---0----2-----0-----0--|--L---0-------3p-0----------------|
--------------------------|-------------------0h-3---0-------|
--3-----x-----3-----x-----|--5-----x-----5---------x---3p-2h-|


  >     >           >              >           >      
  E.  S E  E  E  E  E  E     E.  S E  E  E  E  E  E   
--------------------------|--------------------------|
--------------------------|-----------------------0--|
--2-----------------------|--------------------2--0--|
------0----------0--3--0--|------0----------0--3-----|
------0----0--3-----------|------0----0--3-----------|
--0-----x-----------x-----|--0-----x-----------x-----|


  >     >             >        >     >               >         
  E.  S E    E  E  E  E  E     E.  S E  E  S  S S  S S S S  S  
----------------------------|---------------------------------|
--1-------------------------|--0------------------------------|
--2---2------0-----0-----0--|--L---0----0---------------------|
--0---0----0g2-----0-----0--|--L---0-------3p-0----------5p-3-|
----------------------------|-------------------0h-3---0------|
--3-----x-------3-----x-----|--5-----x-----5---------x--------|


  >     >           >              >          NH   NH      
  E.  S E  E  E  E  E  E     E.  S E  E  E    E    Q       
--------------------------|------------------------------||
--------------------------|-----------------<>7--<>L-----||
--2-----------------------|-----------------<>7--<>L----*||
--0---0----------0--3--0--|------0----------<>7--<>L----*||
------0----0--3-----------|------0----0--3---------------||
--0-----x-----------x-----|--0-----x---------------------||

4th Ending --------------,
        >           >        >     >           >      
  E.  S E  E  E  E  E  E     E.  S E  E  E  E  E  E   
--------------------------|--------------------------|
-----------------------0--|--1-----------------------|
--------------------2--0--|--2---2----0-----0-----0--|
------0----------0--3-----|--0---0----2-----0-----0--|
------0----0--3-----------|--------------------------|
--0-----x-----------x-----|--3-----x-----3-----x-----|


  >     >               >            >     >           >      
  E.  S E  E  S  S S  S S S S  S     E.  S E  E  E  E  E  E   
----------------------------------|--------------------------|
--0-------------------------------|--------------------------|
--L---0----0----------------------|--2-----------------------|
--L---0-------3p-0----------------|------0----------0--3--0--|
-------------------0h-3---0-------|------0----0--3-----------|
--5-----x-----5---------x---3p-2h-|--0-----x-----------x-----|


        >           >        >     >             >      
  E.  S E  E  E  E  E  E     E.  S E    E  E  E  E  E   
--------------------------|----------------------------|
-----------------------0--|--1-------------------------|
--------------------2--0--|--2---2------0-----0-----0--|
------0----------0--3-----|--0---0----0g2-----0-----0--|
------0----0--3-----------|----------------------------|
--0-----x-----------x-----|--3-----x-------3-----x-----|


  >     >               >           >     >           >      
  E.  S E  E  S  S S  S S S S  S    E.  S E  E  E  E  E  E   
---------------------------------|--------------------------|
--0------------------------------|--------------------------|
--L---0----0---------------------|--2-----------------------|
--L---0-------3p-0----------5p-3-|--0---0----------0--3--0--|
-------------------0h-3---0------|------0----0--3-----------|
--5-----x-----5---------x--------|--0-----x-----------x-----|


        >     >       >     >         ^     >           >      
  E.  S E  E  S  S S  S S S S  S      E.  S E  E  E  E  E  E   
---------------------------------||---1-----------------------|
---------------------------------||---1-----------------------|
---------------------------------||*--2-----------------------|
------0-------3p-0------0--------||*--0---0----------0--3--0--|
------0----0-------0h-3---0------||---0---0----0--3-----------|
--0-----x-----0-------------3p-2-||---0-----x-----------x-----|


        >           >              >           >      
  E.  S E  E  E  E  E  E     E.  S E  E  E  E  E  E   
--1---0-------------------|--------------------------|
--1---1----3--L--------0--|--1-----------0--1--0-----|
--2---0----0--L--------0--|--0--------0--0--0--0--2--|
-----------0--L--0--------|--2---2-------0--0--0-----|
--------------------------|--0-----------------------|
--0-----x-----5-----x-----|--------x-----2-----x-----|


        >           >  ^           >           >       
  E  E  E  E  E  E  E  E     E.  S E  E  E  E  E   E   
-----------------------0--|--1------------------------|
--------------------3--3--|--1------------------------|
--L-----2--0--L--0--0--0--|--2------------------------|
-----3--3--0--L-----------|------0----------0--3s--5--|
--------------------------|------0----0--3------------|
--3-----x-----5-----x-----|--0-----x-----------x------|


        >           >              >           >      
  E.  S E  E  E  E  E  E     E  E  E  E  E  E  E  E   
--1---3-------------------|--------------------------|
--1---1----3--L--------0--|--1-----1--3--------------|
--2---0----0--L--------0--|--0-----0--0-----2--0-----|
-----------0--L--0--------|--2--2--2--------0-----4--|
--------------------------|--0-----------2-----------|
--0-----x-----5-----x-----|--------x-----------x-----|

1st Ending -------------------,  2nd Ending --------------
        >             >                  >           >      
  E  E  E  E  E  S  S S  E.        E  E  E  E  E  E  E  E   
-------------------------------||-----0--L-----------------|
-------------------------------||--3-----------------------|
--0--0----------------0h-4~---*||--0--------0-----------0--|
--4-----4--0-----0h-4---------*||--4--------------0--4-----|
--3-----------5----------------||--3-----------5-----------|
--------x-------------x--------||--------x-----------x-----|


        >           >              ^           ^      
  E  E  E  E  E  E  E  E     E  E  E  E  E  E  E  E   
-----------------------0--|--L-----0-----2--0--2--3--|
--1-----1--3--------3-----|--------3--3--3--3--3--3--|
--0-----0--0-----2--2-----|--------0--0--2--2--2--0--|
--2--2--2-----------------|-----2--------0-----------|
--0-----------2-----------|--3-----------------------|
--------x-----------x-----|--------x-----------x-----|


        >           >                >           >      
  E  E  E  E  E  E  E  E     E  S  S E  E  E  E  E  E   
--L--------------------0--|--L----------------------2--|
--L--------3--L--0--3-----|----------------5-----------|
--L--------0--L-----0-----|----------0--0--0--7--------|
-----0-----0--L-----------|-----0h-2-------4--4--------|
--------------2-----------|--3-------------5-----------|
--2-----x-----------x-----|----------x-----------x-----|


       >           >              >           >              >           >      
  Q    E  E  E  E  E  E     E  E  E  E  E  E  E  E     E  E  E  E  E  E  E  E   
--3-------3--L--5--L-----|--------------------------|-----3-----------------0--|
--0-------0--L--0--L--3--|--L-----------------------|-----3-----3--L--0--3-----|
--0-------0--L--0--L--2--|--L-----------------------|-----0-----0--L-----0-----|
----------------------0--|--L-----0--4--2--0--2--4--|-----------0--L-----------|
-------------------------|-----0--------------------|--------------2-----------|
--2----x-----2-----x-----|--0-----x-----0-----x-----|--2-----x-----------x-----|


          >             >               >           >      
  E  S  S E  E  E  S  S S  E.      Q    E  E  E  E  E  E   
--L-----------------------------|--3-------3--L--5--L-----|
--------------------------------|--0-------0--L--0--L--3--|
----------0--0----------0h-4~---|--0-------0--L--0--L--2--|
-----0h-2----------0h-4---------|----------------------0--|
--3-------------5---------------|-------------------------|
----------x-------------x-------|--2----x-----2-----x-----|


        >           >             >           >              >           >      
  E  E  E  E  E  E  E  E     Q    E  E  E  E  E  E     E  E  E  E  E  E  E  E   
-----------------------0--|--1-------------1--L--0--|--L-----0--0--------------|
--L-----------------3-----|--3-------3--L--3--L--1--|--L-----1--1--3--1-----3--|
--L--------0--L--2--------|--3-------3--L--3--L--0--|--L-----0--0--0--------2--|
--L--0--4-----------------|----------3--L-----------|-----2--------2--------0--|
--------------------------|--1----------1-----------|--3-----------3-----------|
--0-----x-----0-----x-----|-------x-----------x-----|--------x-----------x-----|


        >           >              >           ^             >           >      
  E  E  E  E  E  E  E  E     E  E  E  E  E  E  E  E     Q    E  E  E  E  E  E   
--------------------------|-----------------------0--|--1-------------3--L--0--|
--L-----------------------|--------------------3-----|--3-------3--L--------1--|
--L-----------------------|--------------------2-----|--3-------3--L--------0--|
--L-----0--4--L--4-----2--|--L--2-----0--L--0--0-----|----------3--L-----------|
-----0-----------0-----0--|--L--0-----0--L--0--0-----|--1----------1-----------|
--0-----x-----0-----x-----|--0-----x-----0-----x-----|-------x-----------x-----|


        >           >              >           >      
  E  E  E  E  E  E  E  E     E  E  E  E  E  E  E  E   
--L-----0--0--------------|--------------------------|
--L-----1--1--3--1-----3--|--L--3-----3-----3-----3--|
--L-----0--0--0--------2--|--L--2-----2-----2-----2--|
-----2--------2--------0--|--L--5-----5-----5-----4--|
--3-----------3-----------|--------------------------|
--------x-----------x-----|--0-----x-----0-----x-----|


        ^  v  ^  v    >       ^                   
  E  E  E  E  E  E    Q       Q    H.             
---------------------------|--------------------||
--L--3--3--3--3--3---------|--------------------||
--L--2--2--2--2--2---------|--------------------||
--L--4--4--4--4--4--2g3----|--0-----------------||
--------0--0--0--0--2g3----|--0-----------------||
--0-----x-----x-----2g3----|--0-----------------||




Duration Legend
---------------
W - whole
H - half
Q - quarter
E - 8th
S - 16th
T - 32nd
X - 64th
. - note dotted
|-n-|  - n-tuplets


Tablature Legend
----------------
L - tied note
g - grace note
> - accentuded note
NH - natural harmonic
h - hammer on
p - pull off
^ - brush up
v - brush down
Login or Register to remove this ad.

12 comments on The Day The World Revived

Amazing as always

5

I don't know how you come up with these things.
Great flow, great sound, great arrangement.

reminds me of don ross

5

reminds me of don ross somehow

great arrangement anway

Ennea said reminds me of don

Ennea said

reminds me of don ross somehow

great arrangement anway

No need for "anyway," I take that as HUGE compliment. Don Ross is the MAN.

excellent arrangement kbear,

excellent arrangement kbear, very fluid and fun to play.

i agree with ennea in saying it has a somewhat don ross-esque vibe about it.

EDIT: what exactly is a grace note? and how is it played?

In this case it was an easier

In this case it was an easier way for me to notate a short note ahead of the main note. I would have either had to have written a 16th note and a dotted 8th note and it wasn't really what I was going for...not to mention it might be a little confusing. If you look at the actual sheet music, I think it will become more clear what a grace note is.

Excellent tab

5

I've been your fan for quite a while now, this is great.

One question regarding technique: how to play notes simultaneously with a tap? For example, first bar, the note on the 7/8 beat, or the two chords in the one-before-the-final bar.

igotnostrings said I've been

igotnostrings said

I've been your fan for quite a while now, this is great.

One question regarding technique: how to play notes simultaneously with a tap? For example, first bar, the note on the 7/8 beat, or the two chords in the one-before-the-final bar.

Slap with your thumb, strum with your index! You can do downstrokes while blocking the unneeded notes or you can try so pluck them like you normally do - while still tapping with your thumb of course :p

anyway this needs practice! after one or a few more hours you'll get it!

like igotnostrings says, I

like igotnostrings says, I tap with the thumb and downstroke with the index finger.

Kabukibear said like

Kabukibear said

like igotnostrings says, I tap with the thumb and downstroke with the index finger.

He mastered himself and found the answer withing - respect! :D

But man, I feel so pro when I play this!

haha yeah I have a lot of fun

haha yeah I have a lot of fun playing with this one. I've been fooling around with it off and off for like 6 months, but I kept getting stuck with it and putting it on the back burner. There are probably like 4 or 5 different versions of the main theme, some a bit funkier, some a bit straighter, but I finally settled on this one. I'm glad you like it.

This bear has not been

5

This bear has not been hibernating.

Definitely not. Though I've

Definitely not. Though I've lost a lot of the drive to record new videos I have, inversely it seems, gained more interest in arranging music again.