Corridors of Time (Washi981 Version) (Chrono Trigger) Guitar Tab

Submitted: Sep 20, 2018 by laoise

5
Average: 5 (8 votes)
Download | Listen
Game: Chrono Trigger
Composer(s): Nobuo Uematsu, Yasunori Mitsuda, Noriko Matsueda
Style: Arrangement, Fingerstyle, Percussion
Series: Chrono

Click here for a video example.

AutoScroll: Slow | Medium | Fast
Corridors of Time - Chrono Trigger      
Drop D tuning - Partial capo on the 4th fret covering strings 1-5                            

This was arranged by Washi981, I just tabbed it out. 
Check out his cover here https://www.youtube.com/watch?v=I3nR9SksI04

* Hit the bottom string with your thumb when you see XXX

      E  E  E  E  E  E  E  E     E  E  E  E  E  E  E  E     E  E  E  E  E  E  E  E   
E ||--------------------------|--------------------------|--------------------------|
B ||--------------3-----------|--1-----------3-----------|--------------3-----------|
G ||--------0--2--------0--2--|--------0--2--------0--2--|--------0--2--------0--2--|
D ||-----0-----------0--------|-----0-----------0--------|-----0-----------0--------|
A ||--------------------------|--------------------------|--------------------------|
D ||--0-----------------------|--------------------------|--0-----------------------|

                             v                                                       
  E  E  E  E  E  E  E  E     E  S S E  E  E  S S E  E     E  S S E  E  E  S S E  E   
--------------------------|----------------------------|----------------------------|
--1-----------3-----------|--3------------3------------|--1------------3------------|
--------0--2--------0--2--|--2----0----2-------0----2--|-------0----2-------0----2--|
-----0-----------0--------|--0--0---x--------0---x-----|-----0---x--------0---x-----|
--------------------------|---------x------------x-----|---------x------------x-----|
--------------------------|--0------x--0--0------x--0--|--0------x--0--0------x--0--|


  E  S S E  E  E  S S E  E     E  S S E  E  E  E  E  E     E  S S E  E  E  S S E  E   
----------------------------|--0------------------------|--0----0--------------------|
---------------3------------|---------------3-----------|------------3--3------------|
-------0----2-------0----2--|-------0----2--------2-----|-----2--------------0----2--|
-----0---x--------0---x-----|-----0---x--------0-----0--|---------x--------0---x-----|
--0------x--0--0------x--0--|--0------x--0--0-----------|---------x------------x-----|
---------x------------x-----|---------x-----------------|--0------x--0--0------x--0--|


  E  S S E  S  S E  S S E  S  S    E  S S E  E  E  S S E  E     E  S S E  E  E  S S E  E   
-----------------1----3----1p-0-|----------------------------|----------------------------|
--1---------1h-3----------------|--3----3----1--1------------|--0------------1------------|
-------0----2-------2-----------|-----2--------------0----2--|-------0----2--2----0----2--|
-----0---x--------------x-------|---------x--------0---x-----|-----0---x--------0---x-----|
---------x--0----0------x--0----|--0------x--0--0------x--0--|--0------x--0--0------x--0--|
--0------x--------------x-------|---------x------------x-----|---------x------------x-----|


  E  S S E  E  E  S S E  E     E  S S E  S  S E  S S E  E     E.   S E  E  E  S S E  E   
--0----0--------------------|-----------------1----3----1--|--3---/5----5---------------|
------------3--3------------|--1---------1h-3--------------|------/5----5---------------|
-----2--------------0----2--|-------0----2-------2---------|--------------------0----2--|
---------x--------0---x-----|-----0---x--------------x-----|---------x--------0---x-----|
---------x------------x-----|---------x--------------x-----|--0------x-----0------x--0--|
--0------x--0--0------x--0--|--0------x--0----0------x--0--|---------x------------x-----|


  E  S S E  E   E  S S E  S  S    E  S S E  E  E  S S E  E     E  S S E  E  E  S S E  E   
------------3--/8----8----5\-3-|--1-------------------------|------------1-------3----3--|
--1----------------------------|---------------3------------|--1------------3---------3--|
-------0-----------0-----------|-------0----2-------0----2--|-------0----2---------------|
-----0---x-------------x-------|-----0---x--------0---x-----|-----0---x--------0---x-----|
--0------x--0---0------x--0----|---------x------------x-----|---------x------------x-----|
---------x-------------x-------|--0------x--0--0------x--0--|--0------x--0--0------x--0--|


  E  S  S E  E  E  E  E  E     E  S S E  E  S  S S S E  E     E  S S E  E  E  S S E  E   
--3----\5-------------------|------------------------------|--------------------0----1--|
--3----\5----5-----3-----1--|-------1-------1h-3---1-------|--3---------1--3------------|
-----0-------5-----2-----2--|-------0----2-------2------0--|-------3--------------------|
----------x-----------x-----|-----0---x--0-----------x-----|-----3---x--------3---x-----|
--0-------x-----0-----x--0--|--0------x--0--0--------x--0--|---------x------------x-----|
----------x-----------x-----|---------x--------------x-----|--0------x--0--0------x--0--|

                                 ^                                                    
  S  S S S E  E  E  E   E  E     E  S S E  E  E  E  E  E     Q    E  S S E  E  E  E   
--0--------------0--1p--0--1--|--0---------------------0--|--------------------------|
---------1----3---------------|-------3----------1--------|--3---------3----3-----3--|
---------0--------------------|--2--2------2-----2--------|--2-------2---------------|
-------2---x------------x-----|--0------x-----------x-----|--0----x--0---------x-----|
--0h-3-----x--3--3------x--3--|---------x-----0-----x-----|-------x------0-----x-----|
-----------x------------x-----|---------x-----------x-----|-------x------------x-----|


  v                                                                              
  E  E  E  E  E  E  E  E     E  E  E  E  E  E  E  E     E  E  E  E  E  E  E  E   
--------------------------|--------------8-----------|--0-----------------------|
--------------------------|--8--------------8-----8--|-----1-----1-----1-----0--|
--2--2-----2-----2-----2--|-----0-----0-----7-----7--|-----2-----2-----2-----0--|
--0--0--x--0-----0--x--0--|-----0--x--0--------x-----|--------x-----------x-----|
--------x-----------x-----|--------x-----------x-----|--0-----x-----0-----x--0--|
--0-----x-----0-----x-----|--0-----x-----------x-----|--------x-----------x-----|


  E  E  E  E  E   E  E  E     E  E  E  E  E  E  E  E     E  E  E  E  E  E  E  E   
---------------------------|--------------------------|--------------------------|
--6-----------5--/1-----1--|--3-----------------------|--------------1-----------|
--7---------------------2--|-----2-----2-----2-----2--|--0-----------------------|
-----7--x--7---------0-----|-----0--x--0-----0--x--0--|-----0--x--0-----0--x--0--|
--0-----x-----0------------|--------x-----------x-----|--------x-----------x-----|
--------x------------------|--0-----x-----0-----x-----|--0-----x-----0-----x-----|


  E  E  E  E  E  E  E  S  S    E  E  E  E  S  S E  E  E     E  S S E  E  E  S S E  E   
--3-----------1-------------|--0-------------------------|----------------------------|
-----5-----------3----------|--1-----------1h-3----1-----|--3------------3------------|
-----------0----------------|--------------2-------2-----|-------0----2-------0----2--|
--------x-----------x--3s-2-|-----2--x--2-------0-----0--|-----0---x--------0---x-----|
--0-----x-----0-----x-------|--0-----x-----0-------------|---------x------------x-----|
--------x-----------x-------|--------x-------------------|--0------x-----0------x-----|


  E  S S E  E  E  S S E  E     E  E  E  E  E  E  E  S  S    E  S S E  E  E  E  E  E   
---------------8------------|--0-------------------------|--0----1----0--------------|
--8-------------------------|-----1-----1-----1-----1h-3-|---------------1-----------|
-------0------------0-------|-----2-----2-----2----------|-----0------------2--------|
-----0---x--7-----0---x--7--|--------x-----------x-------|---------x-----------x--0--|
---------x------------x-----|--0-----x-----0-----x-------|--0------x-----0-----x-----|
--0------x-----0------x-----|--------x-----------x-------|---------x-----------x-----|


                                                              ^                         
  E  S S E  E  E  S S E  E     S  S S S E  E  E  E   E  E     E  S S E  E  E  E  E  E   
--------------------0----1--|--0--------------0--1p--0--1--|--0---------------------0--|
--3---------1--3------------|---------1----3---------------|-------3----------1--------|
-------3--------------------|---------0--------------------|--2--2------2-----2--------|
-----3---x--------3---x-----|-------2---x------------x-----|--0------x-----------x-----|
---------x------------x-----|--0h-3-----x--3--3------x--3--|---------x-----0-----x-----|
--0------x--0--0------x--0--|-----------x------------x-----|---------x-----------x-----|


          ^                 v                                                   
  Q    E  E  E  E  E  E     E  E  E  E  E  E  E  E     E  E  E  E  E  E  E  E   
-------------------------|--------------------------|--------------------------|
--3-------3-----3-----3--|--------------3-----------|--1-----------3-----------|
--2-------2--------------|--2--2--0--2-----2--0--2--|--------0--2--------0--2--|
--0----x--0--------x-----|--0-----------------------|-----0-----------0--------|
-------x-----0-----x-----|--------------------------|--------------------------|
-------x-----------x-----|--0-----------------------|--------------------------|


  E  E  E  E  E  E  E  E     E  E  E  E  E  E  E  E     E  S S E  E  E  S S E  E   
--------------------------|--0-----------------------|--0----0--------------------|
--------------3-----------|--------------3-----------|------------3--3------------|
--------0--2-----2--0--2--|-----2--0--2--------2-----|-----2--------------0----2--|
-----0--------------------|-----------------0-----0--|---------x--------0---x-----|
--0-----------------------|--------------------------|---------x------------x-----|
--------------------------|--------------------------|--0------x--0--0------x--0--|


  E  S S E  S  S E  S S E  S  S    E  S S E  E  E  S S E  E     E  S S E  E  E  S S E  E   
-----------------1----3----1p-0-|----------------------------|----------------------------|
--1---------1h-3----------------|--3----3----1--1------------|--0------------1------------|
-------0----2-------2-----------|-----2--------------0----2--|-------0----2--2----0----2--|
-----0---x--------------x-------|---------x--------0---x-----|-----0---x--------0---x-----|
---------x--0----0------x--0----|--0------x--0--0------x--0--|--0------x--0--0------x--0--|
--0------x--------------x-------|---------x------------x-----|---------x------------x-----|


  E  S S E  E  E  S S E  E     E  S S E  S  S E  S S E  E     E.   S E  E  E  S S E  E   
--0----0--------------------|-----------------1----3----1--|--3---/5----5---------------|
------------3--3------------|--1---------1h-3--------------|------/5----5---------------|
-----2--------------0----2--|-------0----2-------2---------|--------------------0----2--|
---------x--------0---x-----|-----0---x--------------x-----|---------x--------0---x-----|
---------x------------x-----|---------x--------------x-----|--0------x-----0------x--0--|
--0------x--0--0------x--0--|--0------x--0----0------x--0--|---------x------------x-----|


  E  S S E  E   E  S S E  S  S    E  S S E  E  E  S S E  E     E  S S E  E  E  S S E  E   
------------3--/8----8----5\-3-|--1-------------------------|------------1-------3----3--|
--1----------------------------|---------------3------------|--1------------3---------3--|
-------0-----------0-----------|-------0----2-------0----2--|-------0----2---------------|
-----0---x-------------x-------|-----0---x--------0---x-----|-----0---x--------0---x-----|
--0------x--0---0------x--0----|---------x------------x-----|---------x------------x-----|
---------x-------------x-------|--0------x--0--0------x--0--|--0------x--0--0------x--0--|


  E  S  S E  E  E  E  E  E     E  S S E  E  S  S S S E  E     E  S S E  E  E  S S E  E   
--3----\5-------------------|------------------------------|--------------------0----1--|
--3----\5----5-----3-----1--|-------1-------1h-3---1-------|--3---------1--3------------|
-----0-------5-----2-----2--|-------0----2-------2------0--|-------3--------------------|
----------x-----------x-----|-----0---x--0-----------x-----|-----3---x--------3---x-----|
--0-------x-----0-----x--0--|--0------x--0--0--------x--0--|---------x------------x-----|
----------x-----------x-----|---------x--------------x-----|--0------x--0--0------x--0--|


                                 ^                                   ^               
  S  S S S E  E  E  E   E  E     E  S S E  E  E  E  E  E     Q    E  E  E  E  E  E   
--0--------------0--1p--0--1--|--0---------------------0--|-------------------------|
---------1----3---------------|-------3----------1--------|--3-------3-----3-----3--|
---------0--------------------|--2--2------2-----2--------|--2-------2--------------|
-------2---x------------x-----|--0------x-----------x-----|--0----x--0--------x-----|
--0h-3-----x--3--3------x--3--|---------x-----0-----x-----|-------x-----0-----x-----|
-----------x------------x-----|---------x-----------x-----|-------x-----------x-----|


  v                                                                                
  E  E  E  E  E  E  E  E     E  E  E  E  E  E  E  E     E  E  E  E  E  E  E  S  S  
--------------------------|--------------8-----------|--0-------------------------|
--------------------------|--8--------------8-----8--|-----1-----1-----1-----1h-3-|
--2--2-----2-----2-----2--|-----0-----0-----7-----7--|-----2-----2-----2-----2----|
--0--0--x--0-----0--x--0--|-----0--x--0--------x-----|--------x-----------x-------|
--------x-----------x-----|--------x-----------x-----|--0-----x-----0-----x--0----|
--0-----x-----0-----x-----|--0-----x-----------x-----|--------x-----------x-------|


  E  S S E  E  E  E  E  E     E  E  E  E  E  E  E  E      E  E  E  E  E  E  E  E   
--0----1----0--------------|--------------------------|---------------8-----------|
------------1--1-----------|--3-----------------------|--\8--------------8-----8--|
-----2------------2--------|-----2-----2-----2-----2--|------0-----0-----7-----7--|
---------x-----------x--0--|-----0--x--0-----0--x--0--|------0--x--0--------x-----|
--0------x--0--0-----x-----|--------x-----------x-----|---------x-----------x-----|
---------x-----------x-----|--0-----x-----0-----x-----|---0-----x-----------x-----|


  E  E  E  E  E  E  E  S  S    E  S S E  E  E  E  E  S  S    E  S S E  E  E  E  E  S  S  
--0-------------------------|--0----1----0----------------|--0----1----0----------------|
-----1-----1-----1-----1h-3-|------------1--1--------1h-3-|------------1--1--------1h-3-|
-----2-----2-----2-----2----|-----2------------2-----2----|-----2------------2-----2----|
--------x-----------x-------|---------x-----------x-------|---------x-----------x-------|
--0-----x-----0-----x--0----|--0------x--0--0-----x--0----|---------x-----------x-------|
--------x-----------x-------|---------x-----------x-------|--0------x--0--0-----x--0----|


  E  S S E  S  S  E  S S E  E     E  S S E  E  E   E  E  E     E  E  E  E  E  E  E  E   
--0----1----0h-1h-3----1----0--|--0----1----0---------------|--------------------------|
-------------------------------|----------------------------|-----1-----------------1--|
-----2---------------0---------|-----2---------5--\2-----0--|-----2-----2-----2--------|
---------x---------------x-----|---------x------------x-----|--------x--0-----0--x-----|
---------x---------------x-----|--0------x--0--0------x-----|--0-----x-----0-----x--0--|
--0------x--0--0---------x-----|---------x------------x-----|--------x-----------x-----|


                                                              ^                         
  E  S S E  E  E  S S E  E     S  S S S E  E  E  E   E  E     E  S S E  E  E  E  E  E   
--------------------0----1--|--0--------------0--1p--0--1--|--0---------------------0--|
--3---------1--3------------|---------1----3---------------|-------3----------1--------|
-------3--------------------|---------0--------------------|--2--2------2-----2--------|
-----3---x--------3---x-----|-------2---x------------x-----|--0------x-----------x-----|
---------x------------x-----|--0h-3-----x--3--3------x--3--|---------x-----0-----x-----|
--0------x--0--0------x--0--|-----------x------------x-----|---------x-----------x-----|


          ^                 v                                                   
  Q    E  E  E  E  E  E     E  E  E  E  E  E  E  E     E  E  E  E  E  E  E  E   
-------------------------|--------------------------|--------------------------|
--3-------3-----3-----3--|--------------3-----------|--1-----------3-----------|
--2-------2--------------|--2--2--0--2-----2--0--2--|--------0--2--------0--2--|
--0----x--0--------x-----|--0-----------------------|-----0-----------0--------|
-------x-----0-----x-----|--------------------------|--------------------------|
-------x-----------x-----|--0-----------------------|--------------------------|


  E  E  E  E  E  E  E  E     E  E  E  E  E  E  E  E     E  S S E  E  E  S S E  E   
--------------------------|--0-----------------------|--0----0--------------------|
--------------3-----------|--------------3-----------|------------3--3------------|
--------0--2-----2--0--2--|-----2--0--2--------2-----|-----2--------------0----2--|
-----0--------------------|-----------------0-----0--|---------x--------0---x-----|
--0-----------------------|--------------------------|---------x------------x-----|
--------------------------|--------------------------|--0------x--0--0------x--0--|


  E  S S E  S  S E  S S E  S  S    E  S S E  E  E  S S E  E     E  S S E  E  E  S S E  E   
-----------------1----3----1p-0-|----------------------------|----------------------------|
--1---------1h-3----------------|--3----3----1--1------------|--0------------1------------|
-------0----2-------2-----------|-----2--------------0----2--|-------0----2--2----0----2--|
-----0---x--------------x-------|---------x--------0---x-----|-----0---x--------0---x-----|
---------x--0----0------x--0----|--0------x--0--0------x--0--|--0------x--0--0------x--0--|
--0------x--------------x-------|---------x------------x-----|---------x------------x-----|


  E  S S E  E  E  S S E  E     E  S S E  E  E  S S E  E       E.  S E  S  S E  E  E  E   
-------0----1-------0-------|--------------------0----0--|--2g3---3----2s-1-0-----------|
--3----------------------1--|---------------3------------|---------------------1-----1--|
-----2---------2------------|-------0----2---------------|--------2------------2-----2--|
---------x--------0---x-----|-----0---x--------0---x-----|----------x-------------x-----|
---------x------------x-----|--0------x--0--0------x--0--|----0-----x--0----0-----x-----|
--0------x--0--0------x-----|---------x------------x-----|----------x-------------x-----|


  |-3-|                                                                                  
  S S S S S E  E  E  E  E  E     E  S S E  E  E  S S E  E     E  S S E  E  E  S S E  E   
---------------------0--------|-------0----1-------0-------|--------------------0----0--|
--1-3-1--------3--------------|--3----------------------1--|---------------3------------|
--------0-2----2-----2-----0--|-----2---------2------------|-------0----2-----2---------|
------------x-----------x-----|---------x--------0---x-----|-----0---x------------x-----|
--0---------x--0--0-----x-----|---------x------------x-----|---------x------------x--0--|
------------x-----------x-----|--0------x--0--0------x--0--|--0------x--0--0------x-----|


    E.  S E  S  S E  E  E  E     S  S S S E  Q    E  E  E     E  S S E  E  E  S S E  E   
--2g3---3----2s-1-0-----------|----------------------------|--------------------0----1--|
---------------------1-----1--|--3p-1---1----3----1-----1--|--3---------1--3------------|
--------2------------0-----0--|-------2-----------2--------|-------3--------------------|
----------x-------------x-----|-----------x----------x-----|-----3---x--------3---x-----|
----0-----x--0----0-----x-----|--0--------x--0----0--x--0--|---------x------------x-----|
----------x-------------x-----|-----------x----------x-----|--0------x--0--0------x--0--|


                                 ^                                   ^               
  S  S S S E  E  E  E   E  E     E  S S E  E  E  E  E  E     Q    E  E  E  E  E  E   
--0--------------0--1p--0--1--|--0---------------------0--|-------------------------|
---------1----3---------------|-------3----------1--------|--3-------3-----3-----3--|
---------0--------------------|--2--2------2-----2--------|--2-------2--------------|
-------2---x------------x-----|--0------x-----------x-----|--0----x--0--------x-----|
--0h-3-----x--3--3------x--3--|---------x-----0-----x-----|-------x-----0-----x-----|
-----------x------------x-----|---------x-----------x-----|-------x-----------x-----|


  v                                                                              
  E  E  E  E  E  E  E  E     E  E  E  E  E  E  E  E     E  E  E  E  E  E  E  E   
--------------------------|--------------3-----------|--0-----------------------|
--------------3-----------|--1-----------3-----------|--1-----------1-----------|
--2--2--0--2-----2--0--2--|--------0--2--------2-----|--------0--2--------0--2--|
--0-----------------------|-----0-----------0-----0--|-----0-----------0--------|
--------------------------|--------------------------|--0-----------------------|
--0-----------------------|--------------------------|--------------------------|


  E  E  E  E  E  E  E  E      H.           Q       Q     H.              Q    H.            
--------------------------|---------------------|---------------------|--------------------|
--0-----------1-----------|---------------------|---------------------|--------------------|
--------0--2--------2-----|--\2------------0----|---------------------|-------0------------|
-----0-----------0-----0--|---0-----------------|--3----/2------------|--0-----------------|
--------------------------|---------------------|--------0------------|--------------------|
--------------------------|---0-----------------|---------------------|--------------------|


  ^                  
  W                  
--5----------------||
--3----------------||
-------------------||
--0----------------||
-------------------||
-------------------||




Duration Legend
---------------
W - whole
H - half
Q - quarter
E - 8th
S - 16th
T - 32nd
X - 64th
. - note dotted
|-n-|  - n-tuplets


Tablature Legend
----------------
L - tied note
x - dead note
g - grace note
(n) - ghost note
> - accentuded note
NH - natural harmonic
AH - artificial harmonic
TH - tapped harmonic
SH - semi harmonic
PH - pitch harmonic
h - hammer on
p - pull off
b - bend
br - bendRelease
pb - preBend
pbr - preBendRelease
brb - bendReleaseBend
\n/ - tremolo bar dip
\n - tremolo bar dive
-/n - tremolo bar Release up
/n\ - tremolo bar inverted dip
/n - tremolo bar return
-\n - tremolo bar Release down
S - shift slide
s - legato slide
/ -  slide into from below or out of upwards
\ -  slide into from above or out of downwards
~ - vibrato
W - wide vibrato
tr - trill
TP - tremolo picking
T - tapping
S - slap
P - pop
< - fade in
^ - brush up
v - brush down
Login or Register to remove this ad.

4 comments on Corridors of Time (Washi981 Version)

Thank you so much! I've

Thank you so much! I've listened to this cover God knows how many times and have always wanted to play it! Do striderxxoriginal's "Flight" from Xenogears next time!!!

Yo this is a banger thank you

5

Yo this is a banger thank you so much dude!

I've played a ton of

5

I've played a ton of different arrangements of this song over the years and this one tops them all. Definitely higher level but with a payoff to boot!

That was so good, thank you

5

That was so good, thank you for making this =)