Ads

Corridors of Time (Chrono Trigger) Guitar Tab

Submitted: Aug 21, 2013 by Colin_spade

5
Average: 5 (5 votes)
Download | Listen
Game: Chrono Trigger
Composer(s): Nobuo Uematsu, Yasunori Mitsuda, Noriko Matsueda
Style: Arrangement, Fingerstyle
Series: Chrono

AutoScroll: Slow | Medium | Fast
Corridors Of Time                                 


                                                                Yasunori Mitsuda
Track 1



     E  E  E  E  E  E  E  E     E  E  E  E  E  E  E  E   
E||--------------2-----------|--0-----------2-----------|
B||-----------2-----------2--|-----------2-----------2--|
G||--------4-----------4-----|--------4-----------4-----|
D||--0--4-----------4--------|-----4-----------4--------|
A||--------------------------|--------------------------|
D||--------------------------|--------------------------|


  E  E  E  E  E  E  E  E     E  E  E  E  E  E  E  E   
--------------2-----------|--0-----------2-----------|
-----------2-----------2--|-----------2-----------2--|
--------4-----------4-----|--------4-----------4-----|
--0--4-----------4--------|-----4-----------4--------|
--------------------------|--------------------------|
--------------------------|--------------------------|


  E  S S E  E  E  E  E  E     E  S S E  E  E  E  E  E   
---------------2-----------|--0------------2-----------|
---------0--2--------0--2--|---------0--2--------0--2--|
---------------------------|---------------------------|
--0--4------------4-----0--|-----4------------4-----0--|
---------------------0-----|---------------------0-----|
--0----0----0--------------|--0----0----0--------------|


  E  S S E  E  E  E  E  E     E  S S E  E  E  E  E  E   
---------------2-----------|--0------------2-----------|
------------2-----------2--|------------2-----------2--|
---------4-----------4-----|---------4-----------4-----|
-----4------------4-----4--|-----4------------4--------|
--4------------------4-----|---------------------4-----|
--4----4----4--------------|--4----4----4--------------|


    E.  S E  E  H           Q.     S S E.  S E  S S    E.  S E  E  H         
|---4---4-L--2--2--------|---------2-4-5---7-L--5-4-|--2---2-L--0--0--------|
|------------------------|--------------------------|-----------------------|
|*-----------------------|--------------------------|-----------------------|
|*--0--------0-----------|--0------0----------------|--4--------4-----------|
|---0--------------------|--0-----------------------|--4--------------------|
|------------------------|--------------------------|-----------------------|


  Q    E  Q    E  E  E     E.  S E  E  H           Q    E  E  E.  S E  E   
---------------0--------|--4---4-L--2--2--------|----------2--4---5-L--7--|
-------4-------------2--|-----------------------|-------------------------|
-------1-------1--------|-----------------------|-------------------------|
--4----2--4----2--------|--0--------0-----------|--0-------0--------------|
--4---------------------|--0--------------------|--0----------------------|
------------------------|-----------------------|-------------------------|


  E.  S E   E  H            Q    E  E   E.  S E   E     Q    E  E  H         
--7---9-L---9--L--------|-----------9--12---9-L------|----------------------|
------------------------|------------------------10--|--L-------------------|
------------------------|----------------------------|----------------------|
--4--------11-----------|--11------------------------|--0-------0--L--------|
------------9--L--------|---9-------9----------------|--0-------------------|
------------------------|----------------------------|----------------------|


  Q    E  E  Q    Q       E.  S E  E  Q    E  E     Q    E  Q.     E  E   
----------5-------9----|--7---9-L--4--L----2--0--|--0-----------------0--|
-------------7---------|-------------------------|-----------------------|
-----------------------|-------------------------|-----------------------|
--0-------0------------|--4--------4-------------|--4-------4------------|
--0--------------------|--4----------------------|--4--------------------|
-----------------------|-------------------------|-----------------------|


  E  E  E  E  E.  S E  E     E  E  E  E  E.  S E  E     Q    E  E  Q    E  E   
--2--------0--2---4-L--5--|--4-----0--2--4---5-L--4--|--4---------------4--2--|
--------3-----------------|-----0--------------------|------------------------|
-----2--------------------|--------------------------|------------------------|
--0--------0--------------|--2--------2--------------|--4----L--4--L----------|
--0-----------------------|--------------------------|------------------------|
--------------------------|--------------------------|------------------------|


                                                                ^           
  Q    E  E  Q    Q       E.  S E  E  Q    E  E     E.  S E  E  Q    E  E   
--2--------------------|--2----------------------|--------------0----------|
-----------------------|--2----------------------|--0-----------0----------|
-----------------------|--4----------------------|-------------------------|
--4----L--4--L----2----|--0---0----0--L-------0--|--4-----------4-------0--|
-----------------------|-------------------0-----|-------------------0-----|
-----------------------|-------------------------|--0---0----0--0----------|


                                             ^                               
  E.  S E  E  Q    E  E     E.  S E  E  Q    Q       E.  S E  E  Q    E  E   
--4----------------------|--5-----------4----0----|-------------------------|
--5----------------------|--7-----------5----2----|--2----------------------|
--4----------------------|--------------4----2----|--2----------------------|
----------------------4--|------------------------|--4-------------------0--|
-------------------4-----|-------------------0----|-------------------0-----|
--4---4----4--L----------|--4---4----4--L---------|--0---0----0--L----------|


  E.  S E  E  Q    E  E     E.  S E  E  Q    E  E     E.  S E  E  Q    E  E   
-------------------0-----|-------------------------|-------------------------|
--------------0----2-----|--0----------------------|-------------------------|
--------------1----2-----|--1-----------2----------|--1----------------------|
--------------2-------0--|--2-----------4-------4--|--2-----------4----2--4--|
-------------------0-----|--------------4----4-----|--------------4----2--4--|
--0---0----0--L----------|--4---4----4--L----------|--4---4----4-------2-----|


                                        ^                                     
  E.  S E  E  Q    E  E     E.  S E  E  Q    E  E     E.  S E  E  Q    E  E   
-------------------------|--------------0----------|--4----------------------|
-------------------------|--0-----------0----------|--5----------------------|
-------------------------|-------------------------|--4----------------------|
----------------------0--|--4-----------4-------0--|----------------------4--|
-------------------0-----|-------------------0-----|-------------------4-----|
--0---0----0--L----------|--0---0----0--0----------|--4---4----4--L----------|


                   ^                                                         
  E.  S E  E  Q    Q       E.  S E  E  Q    E  E     E.  S E  E  Q    E  E   
--5-----------4----0----|-------------------------|--------------0----------|
--7-----------5----2----|--2----------------------|--------------0----------|
--------------4----2----|--2----------------------|--------------1----------|
------------------------|--4-------------------0--|--0---0----0-------------|
-------------------0----|-------------------0-----|--------------4-------4--|
--4---4----4--L---------|--0---0----0--L----------|-------------------------|


  ^                                                   ^                       
  E.  S E  E  Q    E  E     E.  S E  E  Q    E  E     E.  S E  E  Q    E  E   
--2----------------------|-------------------------|--2----------------------|
--2----------------------|-------------------------|--2----------------------|
--2----------------------|-------------------------|--4----------------------|
----------------------4--|----------------------4--|--4-------------------0--|
-------------------4-----|-------------------4-----|-------------------0-----|
--4---4----4--L----------|--4---4----4--L----------|--0---0----0--L----------|


  ^                         ^                         ^                         
  E.  S E  E  Q    E  E     E.  S E  E  Q    E  E     E.  S E  E  Q    E  E     
--2----------------------|--0----------------------|--------------------------||
--2----------------------|--0----------------------|--2-------------------2---||
--2----------------------|--1----------------------|--2----------------------*||
----------------------0--|----------------------4--|--2--------4--L----2-----*||
-------------------0-----|-------------------4-----|--------------------------||
--0---0----0--L----------|--4---4----4--L----------|--4---4-------------------||




Duration Legend
---------------
W - whole
H - half
Q - quarter
E - 8th
S - 16th
T - 32nd
X - 64th
. - note dotted
|-n-|  - n-tuplets


Tablature Legend
----------------
L - tied note
x - dead note
g - grace note
(n) - ghost note
> - accentuded note
NH - natural harmonic
AH - artificial harmonic
TH - tapped harmonic
SH - semi harmonic
PH - pitch harmonic
h - hammer on
p - pull off
b - bend
br - bendRelease
pb - preBend
pbr - preBendRelease
brb - bendReleaseBend
\n/ - tremolo bar dip
\n - tremolo bar dive
-/n - tremolo bar Release up
/n\ - tremolo bar inverted dip
/n - tremolo bar return
-\n - tremolo bar Release down
S - shift slide
s - legato slide
/ -  slide into from below or out of upwards
\ -  slide into from above or out of downwards
~ - vibrato
W - wide vibrato
tr - trill
TP - tremolo picking
T - tapping
S - slap
P - pop
< - fade in
^ - brush up
v - brush down
Login or Register to remove this ad.

1 comment on Corridors of Time

Dude you're on a roll! Keep

5

Dude you're on a roll! Keep it up, man!